  0
SECTION
  2
HEADER
  9
$ACADVER
  1
AC1006
  9
$EXTMIN
 10
26.258400
 20
13.322400
  9
$EXTMAX
 10
376.168800
 20
201.952800
  9
$LTSCALE
 40
1.680000
  9
$PDMODE
 70
    35
  9
$PDSIZE
 40
1.344000
  0
ENDSEC
  0
SECTION
  2
TABLES
  0
TABLE
  2
LTYPE
 70
     9
  0
LTYPE
  2
CONTINUOUS
 70
    64
  3
Solid line
 72
    65
 73
     0
 40
0.000000
  0
LTYPE
  2
DASHED
 70
    64
  3
__ __ __ __ __ __ __ __ __ __ __ __ __ __ __
 72
    65
 73
     2
 40
0.012600
 49
0.008400
 49
-0.004200
  0
LTYPE
  2
HIDDEN
 70
    64
  3
 _ _ _ _ _ _ _ _ _ _ _ _ _ _ _ _ _ _ _ _ _ _
 72
    65
 73
     2
 40
0.006300
 49
0.004200
 49
-0.002100
  0
LTYPE
  2
CENTER
 70
    64
  3
____ _ ____ _ ____ _ ____ _ ____ _ ____ _ ____
 72
    65
 73
     4
 40
0.033600
 49
0.021000
 49
-0.004200
 49
0.004200
 49
-0.004200
  0
LTYPE
  2
PHANTOM
 70
    64
  3
_____ _ _ _____ _ _ _____ _ _ _____ _ _ ____
 72
    65
 73
     6
 40
0.042000
 49
0.021000
 49
-0.004200
 49
0.004200
 49
-0.004200
 49
0.004200
 49
-0.004200
  0
LTYPE
  2
DOT
 70
    64
  3
...............................................
 72
    65
 73
     2
 40
0.004200
 49
0.000000
 49
-0.004200
  0
LTYPE
  2
DASHDOT
 70
    64
  3
__ . __ . __ . __ . __ . __ . __ . __ . __ . __
 72
    65
 73
     4
 40
0.016800
 49
0.008400
 49
-0.004200
 49
0.000000
 49
-0.004200
  0
LTYPE
  2
BORDER
 70
    64
  3
__ __ . __ __ . __ __ . __ __ . __ __ . __ __
 72
    65
 73
     6
 40
0.029400
 49
0.008400
 49
-0.004200
 49
0.008400
 49
-0.004200
 49
0.000000
 49
-0.004200
  0
LTYPE
  2
DIVIDE
 70
    64
  3
__ . . __ . . __ . . __ . . __ . . __ . . __
 72
    65
 73
     6
 40
0.021000
 49
0.008400
 49
-0.004200
 49
0.000000
 49
-0.004200
 49
0.000000
 49
-0.004200
  0
LTYPE
  2
DOTDOT
 70
    64
  3
 . .  . .  . .  . .  . .  . . 
 72
    65
 73
     5
 40
0.009240
 49
-0.004200
 49
0.000000
 49
-0.004200
 49
0.000000
 49
-0.004200
  0
ENDTAB
  0
TABLE
  2
STYLE
 70
     4
  0
STYLE
 70
     0
  2
SN0
 40
0.000000
 41
0.016800
 50
0.000000
 71
     0
 42
0.000000
  3
ROMAND
  0
STYLE
 70
    68
  2
SV0
 40
0.000000
 41
0.016800
 50
0.000000
 71
     0
 42
0.000000
  3
ROMAND
  0
STYLE
 70
     0
  2
SN1
 40
0.000000
 41
0.016800
 50
0.000000
 71
     0
 42
0.000000
  3
ROMAND
  0
STYLE
 70
    68
  2
SV1
 40
0.000000
 41
0.016800
 50
0.000000
 71
     0
 42
0.000000
  3
ROMAND
  0
ENDTAB
  0
TABLE
  2
LAYER
 70
     3
  0
LAYER
  2
FOREGROUND
 70
    64
 62
     7
  6
CONTINUOUS
  0
LAYER
  2
BACKGROUND
 70
    65
 62
    -7
  6
CONTINUOUS
  0
LAYER
  2
0
 70
    64
 62
     7
  6
CONTINUOUS
  0
ENDTAB
  0
ENDSEC
  0
SECTION
  2
ENTITIES
  0
HATCH
  5
 27595
100
AcDbEntity
  8
0
 62
   254
100
AcDbHatch
 10
0.000000
 20
0.000000
 30
0.000000
210
0.000000
220
0.000000
230
0.016800
  2
SOLID
 70
     1
 71
     0
 91
     1
 92
     1
 93
    35
 72
     1
 10
167.462400
 20
65.990400
 11
166.924800
 21
66.309600
 72
     1
 10
166.924800
 20
66.309600
 11
165.933600
 21
67.317600
 72
     1
 10
165.933600
 20
67.317600
 11
165.782400
 21
67.401600
 72
     1
 10
165.782400
 20
67.401600
 11
165.648000
 21
67.401600
 72
     1
 10
165.648000
 20
67.401600
 11
165.396000
 21
67.216800
 72
     1
 10
165.396000
 20
67.216800
 11
164.724000
 21
66.208800
 72
     1
 10
164.724000
 20
66.208800
 11
164.472000
 21
66.024000
 72
     1
 10
164.472000
 20
66.024000
 11
164.337600
 21
66.024000
 72
     1
 10
164.337600
 20
66.024000
 11
163.716000
 21
66.511200
 72
     1
 10
163.716000
 20
66.511200
 11
163.413600
 21
66.561600
 72
     1
 10
163.413600
 20
66.561600
 11
163.128000
 21
66.444000
 72
     1
 10
163.128000
 20
66.444000
 11
162.691200
 21
65.940000
 72
     1
 10
162.691200
 20
65.940000
 11
162.422400
 21
65.385600
 72
     1
 10
162.422400
 20
65.385600
 11
162.439200
 21
106.596000
 72
     1
 10
162.439200
 20
106.596000
 11
177.542400
 21
120.506400
 72
     1
 10
177.542400
 20
120.506400
 11
177.542400
 21
135.626400
 72
     1
 10
177.542400
 20
135.626400
 11
162.422400
 21
149.805600
 72
     1
 10
162.422400
 20
149.805600
 11
162.422400
 21
171.998400
 72
     1
 10
162.422400
 20
171.998400
 11
163.212000
 21
172.284000
 72
     1
 10
163.212000
 20
172.284000
 11
163.800000
 21
172.368000
 72
     1
 10
163.800000
 20
172.368000
 11
164.253600
 21
172.317600
 72
     1
 10
164.253600
 20
172.317600
 11
164.556000
 21
172.099200
 72
     1
 10
164.556000
 20
172.099200
 11
165.043200
 21
171.158400
 72
     1
 10
165.043200
 20
171.158400
 11
165.362400
 21
170.940000
 72
     1
 10
165.362400
 20
170.940000
 11
165.816000
 21
170.906400
 72
     1
 10
165.816000
 20
170.906400
 11
166.471200
 21
171.024000
 72
     1
 10
166.471200
 20
171.024000
 11
167.244000
 21
171.309600
 72
     1
 10
167.244000
 20
171.309600
 11
167.428800
 21
171.393600
 72
     1
 10
167.428800
 20
171.393600
 11
167.428800
 21
150.074400
 72
     1
 10
167.428800
 20
150.074400
 11
169.176000
 21
150.074400
 72
     1
 10
169.176000
 20
150.074400
 11
182.246400
 21
137.776800
 72
     1
 10
182.246400
 20
137.776800
 11
182.246400
 21
119.061600
 72
     1
 10
182.246400
 20
119.061600
 11
169.192800
 21
106.562400
 72
     1
 10
169.192800
 20
106.562400
 11
167.462400
 21
106.579200
 72
     1
 10
167.462400
 20
106.579200
 11
167.462400
 21
65.990400
 97
     0
 75
     0
 76
     1
 98
     1
 10
0.000000
 20
0.000000
  0
POLYLINE
  8
0
  6
CONTINUOUS
 66
     1
 40
0.000000
 41
0.000000
 70
     1
  0
VERTEX
  8
0
  6
CONTINUOUS
 10
167.462400
 20
65.990400
  0
VERTEX
  8
0
  6
CONTINUOUS
 10
166.924800
 20
66.309600
  0
VERTEX
  8
0
  6
CONTINUOUS
 10
165.933600
 20
67.317600
  0
VERTEX
  8
0
  6
CONTINUOUS
 10
165.782400
 20
67.401600
  0
VERTEX
  8
0
  6
CONTINUOUS
 10
165.648000
 20
67.401600
  0
VERTEX
  8
0
  6
CONTINUOUS
 10
165.396000
 20
67.216800
  0
VERTEX
  8
0
  6
CONTINUOUS
 10
164.724000
 20
66.208800
  0
VERTEX
  8
0
  6
CONTINUOUS
 10
164.472000
 20
66.024000
  0
VERTEX
  8
0
  6
CONTINUOUS
 10
164.337600
 20
66.024000
  0
VERTEX
  8
0
  6
CONTINUOUS
 10
163.716000
 20
66.511200
  0
VERTEX
  8
0
  6
CONTINUOUS
 10
163.413600
 20
66.561600
  0
VERTEX
  8
0
  6
CONTINUOUS
 10
163.128000
 20
66.444000
  0
VERTEX
  8
0
  6
CONTINUOUS
 10
162.691200
 20
65.940000
  0
VERTEX
  8
0
  6
CONTINUOUS
 10
162.422400
 20
65.385600
  0
VERTEX
  8
0
  6
CONTINUOUS
 10
162.439200
 20
106.596000
  0
VERTEX
  8
0
  6
CONTINUOUS
 10
177.542400
 20
120.506400
  0
VERTEX
  8
0
  6
CONTINUOUS
 10
177.542400
 20
135.626400
  0
VERTEX
  8
0
  6
CONTINUOUS
 10
162.422400
 20
149.805600
  0
VERTEX
  8
0
  6
CONTINUOUS
 10
162.422400
 20
171.998400
  0
VERTEX
  8
0
  6
CONTINUOUS
 10
163.212000
 20
172.284000
  0
VERTEX
  8
0
  6
CONTINUOUS
 10
163.800000
 20
172.368000
  0
VERTEX
  8
0
  6
CONTINUOUS
 10
164.253600
 20
172.317600
  0
VERTEX
  8
0
  6
CONTINUOUS
 10
164.556000
 20
172.099200
  0
VERTEX
  8
0
  6
CONTINUOUS
 10
165.043200
 20
171.158400
  0
VERTEX
  8
0
  6
CONTINUOUS
 10
165.362400
 20
170.940000
  0
VERTEX
  8
0
  6
CONTINUOUS
 10
165.816000
 20
170.906400
  0
VERTEX
  8
0
  6
CONTINUOUS
 10
166.471200
 20
171.024000
  0
VERTEX
  8
0
  6
CONTINUOUS
 10
167.244000
 20
171.309600
  0
VERTEX
  8
0
  6
CONTINUOUS
 10
167.428800
 20
171.393600
  0
VERTEX
  8
0
  6
CONTINUOUS
 10
167.428800
 20
150.074400
  0
VERTEX
  8
0
  6
CONTINUOUS
 10
169.176000
 20
150.074400
  0
VERTEX
  8
0
  6
CONTINUOUS
 10
182.246400
 20
137.776800
  0
VERTEX
  8
0
  6
CONTINUOUS
 10
182.246400
 20
119.061600
  0
VERTEX
  8
0
  6
CONTINUOUS
 10
169.192800
 20
106.562400
  0
VERTEX
  8
0
  6
CONTINUOUS
 10
167.462400
 20
106.579200
  0
SEQEND
  8
0
  0
HATCH
  5
 27596
100
AcDbEntity
  8
0
 62
    31
100
AcDbHatch
 10
0.000000
 20
0.000000
 30
0.000000
210
0.000000
220
0.000000
230
0.016800
  2
SOLID
 70
     1
 71
     0
 91
     1
 92
     1
 93
     8
 72
     1
 10
162.590400
 20
103.135200
 11
119.380800
 21
103.135200
 72
     1
 10
119.380800
 20
103.135200
 11
119.380800
 21
100.984800
 72
     1
 10
119.380800
 20
100.984800
 11
149.973600
 21
100.984800
 72
     1
 10
149.973600
 20
100.984800
 11
149.973600
 21
100.027200
 72
     1
 10
149.973600
 20
100.027200
 11
152.124000
 21
100.027200
 72
     1
 10
152.124000
 20
100.027200
 11
152.124000
 21
100.984800
 72
     1
 10
152.124000
 20
100.984800
 11
162.657600
 21
100.984800
 72
     1
 10
162.657600
 20
100.984800
 11
162.590400
 21
103.135200
 97
     0
 75
     0
 76
     1
 98
     1
 10
0.000000
 20
0.000000
  0
POLYLINE
  8
0
  6
CONTINUOUS
 66
     1
 40
0.000000
 41
0.000000
 70
     1
  0
VERTEX
  8
0
  6
CONTINUOUS
 10
162.590400
 20
103.135200
  0
VERTEX
  8
0
  6
CONTINUOUS
 10
119.380800
 20
103.135200
  0
VERTEX
  8
0
  6
CONTINUOUS
 10
119.380800
 20
100.984800
  0
VERTEX
  8
0
  6
CONTINUOUS
 10
149.973600
 20
100.984800
  0
VERTEX
  8
0
  6
CONTINUOUS
 10
149.973600
 20
100.027200
  0
VERTEX
  8
0
  6
CONTINUOUS
 10
152.124000
 20
100.027200
  0
VERTEX
  8
0
  6
CONTINUOUS
 10
152.124000
 20
100.984800
  0
VERTEX
  8
0
  6
CONTINUOUS
 10
162.657600
 20
100.984800
  0
SEQEND
  8
0
  0
HATCH
  5
 27597
100
AcDbEntity
  8
0
 62
    30
100
AcDbHatch
 10
0.000000
 20
0.000000
 30
0.000000
210
0.000000
220
0.000000
230
0.016800
  2
SOLID
 70
     1
 71
     0
 91
     1
 92
     1
 93
     4
 72
     1
 10
152.510400
 20
87.964800
 11
149.268000
 21
87.964800
 72
     1
 10
149.268000
 20
87.964800
 11
149.268000
 21
86.352000
 72
     1
 10
149.268000
 20
86.352000
 11
152.510400
 21
86.352000
 72
     1
 10
152.510400
 20
86.352000
 11
152.510400
 21
87.964800
 97
     0
 75
     0
 76
     1
 98
     1
 10
0.000000
 20
0.000000
  0
POLYLINE
  8
0
  6
CONTINUOUS
 66
     1
 40
0.000000
 41
0.000000
 70
     1
  0
VERTEX
  8
0
  6
CONTINUOUS
 10
152.510400
 20
87.964800
  0
VERTEX
  8
0
  6
CONTINUOUS
 10
149.268000
 20
87.964800
  0
VERTEX
  8
0
  6
CONTINUOUS
 10
149.268000
 20
86.352000
  0
VERTEX
  8
0
  6
CONTINUOUS
 10
152.510400
 20
86.352000
  0
SEQEND
  8
0
  0
HATCH
  5
 27598
100
AcDbEntity
  8
0
 62
     2
100
AcDbHatch
 10
0.000000
 20
0.000000
 30
0.000000
210
0.000000
220
0.000000
230
0.016800
  2
SOLID
 70
     1
 71
     0
 91
     1
 92
     1
 93
     4
 72
     1
 10
150.477600
 20
100.128000
 11
149.671200
 21
100.128000
 72
     1
 10
149.671200
 20
100.128000
 11
149.671200
 21
87.830400
 72
     1
 10
149.671200
 20
87.830400
 11
150.477600
 21
87.830400
 72
     1
 10
150.477600
 20
87.830400
 11
150.477600
 21
100.128000
 97
     0
 75
     0
 76
     1
 98
     1
 10
0.000000
 20
0.000000
  0
POLYLINE
  8
0
  6
CONTINUOUS
 66
     1
 40
0.000000
 41
0.000000
 70
     1
  0
VERTEX
  8
0
  6
CONTINUOUS
 10
150.477600
 20
100.128000
  0
VERTEX
  8
0
  6
CONTINUOUS
 10
149.671200
 20
100.128000
  0
VERTEX
  8
0
  6
CONTINUOUS
 10
149.671200
 20
87.830400
  0
VERTEX
  8
0
  6
CONTINUOUS
 10
150.477600
 20
87.830400
  0
SEQEND
  8
0
  0
HATCH
  5
 27599
100
AcDbEntity
  8
0
 62
     2
100
AcDbHatch
 10
0.000000
 20
0.000000
 30
0.000000
210
0.000000
220
0.000000
230
0.016800
  2
SOLID
 70
     1
 71
     0
 91
     1
 92
     1
 93
     4
 72
     1
 10
141.556800
 20
97.087200
 11
140.985600
 21
96.516000
 72
     1
 10
140.985600
 20
96.516000
 11
149.671200
 21
87.830400
 72
     1
 10
149.671200
 20
87.830400
 11
150.242400
 21
88.401600
 72
     1
 10
150.242400
 20
88.401600
 11
141.556800
 21
97.087200
 97
     0
 75
     0
 76
     1
 98
     1
 10
0.000000
 20
0.000000
  0
POLYLINE
  8
0
  6
CONTINUOUS
 66
     1
 40
0.000000
 41
0.000000
 70
     1
  0
VERTEX
  8
0
  6
CONTINUOUS
 10
141.556800
 20
97.087200
  0
VERTEX
  8
0
  6
CONTINUOUS
 10
140.985600
 20
96.516000
  0
VERTEX
  8
0
  6
CONTINUOUS
 10
149.671200
 20
87.830400
  0
VERTEX
  8
0
  6
CONTINUOUS
 10
150.242400
 20
88.401600
  0
SEQEND
  8
0
  0
HATCH
  5
 27600
100
AcDbEntity
  8
0
 62
     2
100
AcDbHatch
 10
0.000000
 20
0.000000
 30
0.000000
210
0.000000
220
0.000000
230
0.016800
  2
SOLID
 70
     1
 71
     0
 91
     1
 92
     1
 93
     4
 72
     1
 10
167.428800
 20
100.800000
 11
166.824000
 21
100.800000
 72
     1
 10
166.824000
 20
100.800000
 11
166.824000
 21
93.777600
 72
     1
 10
166.824000
 20
93.777600
 11
167.428800
 21
93.777600
 72
     1
 10
167.428800
 20
93.777600
 11
167.428800
 21
100.800000
 97
     0
 75
     0
 76
     1
 98
     1
 10
0.000000
 20
0.000000
  0
POLYLINE
  8
0
  6
CONTINUOUS
 66
     1
 40
0.000000
 41
0.000000
 70
     1
  0
VERTEX
  8
0
  6
CONTINUOUS
 10
167.428800
 20
100.800000
  0
VERTEX
  8
0
  6
CONTINUOUS
 10
166.824000
 20
100.800000
  0
VERTEX
  8
0
  6
CONTINUOUS
 10
166.824000
 20
93.777600
  0
VERTEX
  8
0
  6
CONTINUOUS
 10
167.428800
 20
93.777600
  0
SEQEND
  8
0
  0
HATCH
  5
 27601
100
AcDbEntity
  8
0
 62
     2
100
AcDbHatch
 10
0.000000
 20
0.000000
 30
0.000000
210
0.000000
220
0.000000
230
0.016800
  2
SOLID
 70
     1
 71
     0
 91
     1
 92
     1
 93
     4
 72
     1
 10
167.428800
 20
100.800000
 11
166.992000
 21
101.220000
 72
     1
 10
166.992000
 20
101.220000
 11
162.036000
 21
96.264000
 72
     1
 10
162.036000
 20
96.264000
 11
162.456000
 21
95.827200
 72
     1
 10
162.456000
 20
95.827200
 11
167.428800
 21
100.800000
 97
     0
 75
     0
 76
     1
 98
     1
 10
0.000000
 20
0.000000
  0
POLYLINE
  8
0
  6
CONTINUOUS
 66
     1
 40
0.000000
 41
0.000000
 70
     1
  0
VERTEX
  8
0
  6
CONTINUOUS
 10
167.428800
 20
100.800000
  0
VERTEX
  8
0
  6
CONTINUOUS
 10
166.992000
 20
101.220000
  0
VERTEX
  8
0
  6
CONTINUOUS
 10
162.036000
 20
96.264000
  0
VERTEX
  8
0
  6
CONTINUOUS
 10
162.456000
 20
95.827200
  0
SEQEND
  8
0
  0
HATCH
  5
 27602
100
AcDbEntity
  8
0
 62
     2
100
AcDbHatch
 10
0.000000
 20
0.000000
 30
0.000000
210
0.000000
220
0.000000
230
0.016800
  2
SOLID
 70
     1
 71
     0
 91
     1
 92
     1
 93
     4
 72
     1
 10
167.428800
 20
100.800000
 11
167.428800
 21
101.404800
 72
     1
 10
167.428800
 20
101.404800
 11
160.406400
 21
101.404800
 72
     1
 10
160.406400
 20
101.404800
 11
160.406400
 21
100.800000
 72
     1
 10
160.406400
 20
100.800000
 11
167.428800
 21
100.800000
 97
     0
 75
     0
 76
     1
 98
     1
 10
0.000000
 20
0.000000
  0
POLYLINE
  8
0
  6
CONTINUOUS
 66
     1
 40
0.000000
 41
0.000000
 70
     1
  0
VERTEX
  8
0
  6
CONTINUOUS
 10
167.428800
 20
100.800000
  0
VERTEX
  8
0
  6
CONTINUOUS
 10
167.428800
 20
101.404800
  0
VERTEX
  8
0
  6
CONTINUOUS
 10
160.406400
 20
101.404800
  0
VERTEX
  8
0
  6
CONTINUOUS
 10
160.406400
 20
100.800000
  0
SEQEND
  8
0
  0
HATCH
  5
 27603
100
AcDbEntity
  8
0
 62
     2
100
AcDbHatch
 10
0.000000
 20
0.000000
 30
0.000000
210
0.000000
220
0.000000
230
0.016800
  2
SOLID
 70
     1
 71
     0
 91
     1
 92
     1
 93
     4
 72
     1
 10
167.428800
 20
86.419200
 11
166.824000
 21
86.419200
 72
     1
 10
166.824000
 20
86.419200
 11
166.824000
 21
93.441600
 72
     1
 10
166.824000
 20
93.441600
 11
167.428800
 21
93.441600
 72
     1
 10
167.428800
 20
93.441600
 11
167.428800
 21
86.419200
 97
     0
 75
     0
 76
     1
 98
     1
 10
0.000000
 20
0.000000
  0
POLYLINE
  8
0
  6
CONTINUOUS
 66
     1
 40
0.000000
 41
0.000000
 70
     1
  0
VERTEX
  8
0
  6
CONTINUOUS
 10
167.428800
 20
86.419200
  0
VERTEX
  8
0
  6
CONTINUOUS
 10
166.824000
 20
86.419200
  0
VERTEX
  8
0
  6
CONTINUOUS
 10
166.824000
 20
93.441600
  0
VERTEX
  8
0
  6
CONTINUOUS
 10
167.428800
 20
93.441600
  0
SEQEND
  8
0
  0
HATCH
  5
 27604
100
AcDbEntity
  8
0
 62
     2
100
AcDbHatch
 10
0.000000
 20
0.000000
 30
0.000000
210
0.000000
220
0.000000
230
0.016800
  2
SOLID
 70
     1
 71
     0
 91
     1
 92
     1
 93
     4
 72
     1
 10
167.428800
 20
86.419200
 11
166.992000
 21
85.982400
 72
     1
 10
166.992000
 20
85.982400
 11
162.036000
 21
90.955200
 72
     1
 10
162.036000
 20
90.955200
 11
162.456000
 21
91.375200
 72
     1
 10
162.456000
 20
91.375200
 11
167.428800
 21
86.419200
 97
     0
 75
     0
 76
     1
 98
     1
 10
0.000000
 20
0.000000
  0
POLYLINE
  8
0
  6
CONTINUOUS
 66
     1
 40
0.000000
 41
0.000000
 70
     1
  0
VERTEX
  8
0
  6
CONTINUOUS
 10
167.428800
 20
86.419200
  0
VERTEX
  8
0
  6
CONTINUOUS
 10
166.992000
 20
85.982400
  0
VERTEX
  8
0
  6
CONTINUOUS
 10
162.036000
 20
90.955200
  0
VERTEX
  8
0
  6
CONTINUOUS
 10
162.456000
 20
91.375200
  0
SEQEND
  8
0
  0
HATCH
  5
 27605
100
AcDbEntity
  8
0
 62
     2
100
AcDbHatch
 10
0.000000
 20
0.000000
 30
0.000000
210
0.000000
220
0.000000
230
0.016800
  2
SOLID
 70
     1
 71
     0
 91
     1
 92
     1
 93
     4
 72
     1
 10
167.428800
 20
86.419200
 11
167.428800
 21
85.814400
 72
     1
 10
167.428800
 20
85.814400
 11
160.406400
 21
85.814400
 72
     1
 10
160.406400
 20
85.814400
 11
160.406400
 21
86.419200
 72
     1
 10
160.406400
 20
86.419200
 11
167.428800
 21
86.419200
 97
     0
 75
     0
 76
     1
 98
     1
 10
0.000000
 20
0.000000
  0
POLYLINE
  8
0
  6
CONTINUOUS
 66
     1
 40
0.000000
 41
0.000000
 70
     1
  0
VERTEX
  8
0
  6
CONTINUOUS
 10
167.428800
 20
86.419200
  0
VERTEX
  8
0
  6
CONTINUOUS
 10
167.428800
 20
85.814400
  0
VERTEX
  8
0
  6
CONTINUOUS
 10
160.406400
 20
85.814400
  0
VERTEX
  8
0
  6
CONTINUOUS
 10
160.406400
 20
86.419200
  0
SEQEND
  8
0
  0
HATCH
  5
 27606
100
AcDbEntity
  8
0
 62
    30
100
AcDbHatch
 10
0.000000
 20
0.000000
 30
0.000000
210
0.000000
220
0.000000
230
0.016800
  2
SOLID
 70
     1
 71
     0
 91
     1
 92
     1
 93
     4
 72
     1
 10
152.577600
 20
101.539200
 11
149.335200
 21
101.539200
 72
     1
 10
149.335200
 20
101.539200
 11
149.335200
 21
99.926400
 72
     1
 10
149.335200
 20
99.926400
 11
152.577600
 21
99.926400
 72
     1
 10
152.577600
 20
99.926400
 11
152.577600
 21
101.539200
 97
     0
 75
     0
 76
     1
 98
     1
 10
0.000000
 20
0.000000
  0
POLYLINE
  8
0
  6
CONTINUOUS
 66
     1
 40
0.000000
 41
0.000000
 70
     1
  0
VERTEX
  8
0
  6
CONTINUOUS
 10
152.577600
 20
101.539200
  0
VERTEX
  8
0
  6
CONTINUOUS
 10
149.335200
 20
101.539200
  0
VERTEX
  8
0
  6
CONTINUOUS
 10
149.335200
 20
99.926400
  0
VERTEX
  8
0
  6
CONTINUOUS
 10
152.577600
 20
99.926400
  0
SEQEND
  8
0
  0
HATCH
  5
 27607
100
AcDbEntity
  8
0
 62
     9
100
AcDbHatch
 10
0.000000
 20
0.000000
 30
0.000000
210
0.000000
220
0.000000
230
0.016800
  2
SOLID
 70
     1
 71
     0
 91
     1
 92
     1
 93
    12
 72
     1
 10
26.796000
 20
176.282400
 11
26.796000
 21
32.608800
 72
     1
 10
26.796000
 20
32.608800
 11
34.137600
 21
32.642400
 72
     1
 10
34.137600
 20
32.642400
 11
34.137600
 21
63.352800
 72
     1
 10
34.137600
 20
63.352800
 11
30.777600
 21
65.066400
 72
     1
 10
30.777600
 20
65.066400
 11
30.777600
 21
76.826400
 72
     1
 10
30.777600
 20
76.826400
 11
34.137600
 21
79.363200
 72
     1
 10
34.137600
 20
79.363200
 11
34.137600
 21
131.124000
 72
     1
 10
34.137600
 20
131.124000
 11
30.340800
 21
132.568800
 72
     1
 10
30.340800
 20
132.568800
 11
30.340800
 21
144.849600
 72
     1
 10
30.340800
 20
144.849600
 11
34.255200
 21
146.882400
 72
     1
 10
34.255200
 20
146.882400
 11
34.137600
 21
176.282400
 72
     1
 10
34.137600
 20
176.282400
 11
26.796000
 21
176.282400
 97
     0
 75
     0
 76
     1
 98
     1
 10
0.000000
 20
0.000000
  0
POLYLINE
  8
0
  6
CONTINUOUS
 66
     1
 40
0.000000
 41
0.000000
 70
     1
  0
VERTEX
  8
0
  6
CONTINUOUS
 10
26.796000
 20
176.282400
  0
VERTEX
  8
0
  6
CONTINUOUS
 10
26.796000
 20
32.608800
  0
VERTEX
  8
0
  6
CONTINUOUS
 10
34.137600
 20
32.642400
  0
VERTEX
  8
0
  6
CONTINUOUS
 10
34.137600
 20
63.352800
  0
VERTEX
  8
0
  6
CONTINUOUS
 10
30.777600
 20
65.066400
  0
VERTEX
  8
0
  6
CONTINUOUS
 10
30.777600
 20
76.826400
  0
VERTEX
  8
0
  6
CONTINUOUS
 10
34.137600
 20
79.363200
  0
VERTEX
  8
0
  6
CONTINUOUS
 10
34.137600
 20
131.124000
  0
VERTEX
  8
0
  6
CONTINUOUS
 10
30.340800
 20
132.568800
  0
VERTEX
  8
0
  6
CONTINUOUS
 10
30.340800
 20
144.849600
  0
VERTEX
  8
0
  6
CONTINUOUS
 10
34.255200
 20
146.882400
  0
VERTEX
  8
0
  6
CONTINUOUS
 10
34.137600
 20
176.282400
  0
SEQEND
  8
0
  0
LINE
  8
0
  6
CONTINUOUS
 10
104.512800
 20
85.680000
 11
104.512800
 21
83.512800
  0
HATCH
  5
 27608
100
AcDbEntity
  8
0
 62
    31
100
AcDbHatch
 10
0.000000
 20
0.000000
 30
0.000000
210
0.000000
220
0.000000
230
0.016800
  2
SOLID
 70
     1
 71
     0
 91
     1
 92
     1
 93
    24
 72
     1
 10
121.212000
 20
159.465600
 11
121.212000
 21
155.584800
 72
     1
 10
121.212000
 20
155.584800
 11
74.709600
 21
155.584800
 72
     1
 10
74.709600
 20
155.584800
 11
74.709600
 21
150.696000
 72
     1
 10
74.709600
 20
150.696000
 11
56.498400
 21
150.696000
 72
     1
 10
56.498400
 20
150.696000
 11
56.498400
 21
153.518400
 72
     1
 10
56.498400
 20
153.518400
 11
48.736800
 21
153.518400
 72
     1
 10
48.736800
 20
153.518400
 11
48.736800
 21
156.525600
 72
     1
 10
48.736800
 20
156.525600
 11
34.104000
 21
156.525600
 72
     1
 10
34.104000
 20
156.525600
 11
34.104000
 21
154.509600
 72
     1
 10
34.104000
 20
154.509600
 11
46.720800
 21
154.509600
 72
     1
 10
46.720800
 20
154.509600
 11
46.720800
 21
151.502400
 72
     1
 10
46.720800
 20
151.502400
 11
54.482400
 21
151.502400
 72
     1
 10
54.482400
 20
151.502400
 11
54.482400
 21
148.680000
 72
     1
 10
54.482400
 20
148.680000
 11
76.742400
 21
148.680000
 72
     1
 10
76.742400
 20
148.680000
 11
76.742400
 21
150.696000
 72
     1
 10
76.742400
 20
150.696000
 11
76.725600
 21
150.696000
 72
     1
 10
76.725600
 20
150.696000
 11
76.725600
 21
152.728800
 72
     1
 10
76.725600
 20
152.728800
 11
86.503200
 21
152.728800
 72
     1
 10
86.503200
 20
152.728800
 11
86.503200
 21
153.568800
 72
     1
 10
86.503200
 20
153.568800
 11
123.228000
 21
153.568800
 72
     1
 10
123.228000
 20
153.568800
 11
123.228000
 21
157.449600
 72
     1
 10
123.228000
 20
157.449600
 11
150.259200
 21
157.449600
 72
     1
 10
150.259200
 20
157.449600
 11
150.259200
 21
159.465600
 72
     1
 10
150.259200
 20
159.465600
 11
121.212000
 21
159.465600
 97
     0
 75
     0
 76
     1
 98
     1
 10
0.000000
 20
0.000000
  0
POLYLINE
  8
0
 62
    31
  6
CONTINUOUS
 66
     1
 40
0.000000
 41
0.000000
 70
     1
  0
VERTEX
  8
0
 62
    31
  6
CONTINUOUS
 10
121.212000
 20
159.465600
  0
VERTEX
  8
0
 62
    31
  6
CONTINUOUS
 10
121.212000
 20
155.584800
  0
VERTEX
  8
0
 62
    31
  6
CONTINUOUS
 10
74.709600
 20
155.584800
  0
VERTEX
  8
0
 62
    31
  6
CONTINUOUS
 10
74.709600
 20
150.696000
  0
VERTEX
  8
0
 62
    31
  6
CONTINUOUS
 10
56.498400
 20
150.696000
  0
VERTEX
  8
0
 62
    31
  6
CONTINUOUS
 10
56.498400
 20
153.518400
  0
VERTEX
  8
0
 62
    31
  6
CONTINUOUS
 10
48.736800
 20
153.518400
  0
VERTEX
  8
0
 62
    31
  6
CONTINUOUS
 10
48.736800
 20
156.525600
  0
VERTEX
  8
0
 62
    31
  6
CONTINUOUS
 10
34.104000
 20
156.525600
  0
VERTEX
  8
0
 62
    31
  6
CONTINUOUS
 10
34.104000
 20
154.509600
  0
VERTEX
  8
0
 62
    31
  6
CONTINUOUS
 10
46.720800
 20
154.509600
  0
VERTEX
  8
0
 62
    31
  6
CONTINUOUS
 10
46.720800
 20
151.502400
  0
VERTEX
  8
0
 62
    31
  6
CONTINUOUS
 10
54.482400
 20
151.502400
  0
VERTEX
  8
0
 62
    31
  6
CONTINUOUS
 10
54.482400
 20
148.680000
  0
VERTEX
  8
0
 62
    31
  6
CONTINUOUS
 10
76.742400
 20
148.680000
  0
VERTEX
  8
0
 62
    31
  6
CONTINUOUS
 10
76.742400
 20
150.696000
  0
VERTEX
  8
0
 62
    31
  6
CONTINUOUS
 10
76.725600
 20
150.696000
  0
VERTEX
  8
0
 62
    31
  6
CONTINUOUS
 10
76.725600
 20
152.728800
  0
VERTEX
  8
0
 62
    31
  6
CONTINUOUS
 10
86.503200
 20
152.728800
  0
VERTEX
  8
0
 62
    31
  6
CONTINUOUS
 10
86.503200
 20
153.568800
  0
VERTEX
  8
0
 62
    31
  6
CONTINUOUS
 10
123.228000
 20
153.568800
  0
VERTEX
  8
0
 62
    31
  6
CONTINUOUS
 10
123.228000
 20
157.449600
  0
VERTEX
  8
0
 62
    31
  6
CONTINUOUS
 10
150.259200
 20
157.449600
  0
VERTEX
  8
0
 62
    31
  6
CONTINUOUS
 10
150.259200
 20
159.465600
  0
SEQEND
  8
0
  0
HATCH
  5
 27609
100
AcDbEntity
  8
0
 62
    31
100
AcDbHatch
 10
0.000000
 20
0.000000
 30
0.000000
210
0.000000
220
0.000000
230
0.016800
  2
SOLID
 70
     1
 71
     0
 91
     1
 92
     1
 93
    12
 72
     1
 10
148.260000
 20
157.449600
 11
148.260000
 21
152.510400
 72
     1
 10
148.260000
 20
152.510400
 11
123.228000
 21
152.510400
 72
     1
 10
123.228000
 20
152.510400
 11
123.228000
 21
153.568800
 72
     1
 10
123.228000
 20
153.568800
 11
121.212000
 21
153.568800
 72
     1
 10
121.212000
 20
153.568800
 11
121.212000
 21
150.494400
 72
     1
 10
121.212000
 20
150.494400
 11
150.259200
 21
150.494400
 72
     1
 10
150.259200
 20
150.494400
 11
150.259200
 21
153.468000
 72
     1
 10
150.259200
 20
153.468000
 11
162.422400
 21
153.468000
 72
     1
 10
162.422400
 20
153.468000
 11
162.422400
 21
155.484000
 72
     1
 10
162.422400
 20
155.484000
 11
150.259200
 21
155.484000
 72
     1
 10
150.259200
 20
155.484000
 11
150.259200
 21
157.449600
 72
     1
 10
150.259200
 20
157.449600
 11
148.260000
 21
157.449600
 97
     0
 75
     0
 76
     1
 98
     1
 10
0.000000
 20
0.000000
  0
POLYLINE
  8
0
 62
    31
  6
CONTINUOUS
 66
     1
 40
0.000000
 41
0.000000
 70
     1
  0
VERTEX
  8
0
 62
    31
  6
CONTINUOUS
 10
148.260000
 20
157.449600
  0
VERTEX
  8
0
 62
    31
  6
CONTINUOUS
 10
148.260000
 20
152.510400
  0
VERTEX
  8
0
 62
    31
  6
CONTINUOUS
 10
123.228000
 20
152.510400
  0
VERTEX
  8
0
 62
    31
  6
CONTINUOUS
 10
123.228000
 20
153.568800
  0
VERTEX
  8
0
 62
    31
  6
CONTINUOUS
 10
121.212000
 20
153.568800
  0
VERTEX
  8
0
 62
    31
  6
CONTINUOUS
 10
121.212000
 20
150.494400
  0
VERTEX
  8
0
 62
    31
  6
CONTINUOUS
 10
150.259200
 20
150.494400
  0
VERTEX
  8
0
 62
    31
  6
CONTINUOUS
 10
150.259200
 20
153.468000
  0
VERTEX
  8
0
 62
    31
  6
CONTINUOUS
 10
162.422400
 20
153.468000
  0
VERTEX
  8
0
 62
    31
  6
CONTINUOUS
 10
162.422400
 20
155.484000
  0
VERTEX
  8
0
 62
    31
  6
CONTINUOUS
 10
150.259200
 20
155.484000
  0
VERTEX
  8
0
 62
    31
  6
CONTINUOUS
 10
150.259200
 20
157.449600
  0
SEQEND
  8
0
  0
HATCH
  5
 27610
100
AcDbEntity
  8
0
 62
    31
100
AcDbHatch
 10
0.000000
 20
0.000000
 30
0.000000
210
0.000000
220
0.000000
230
0.016800
  2
SOLID
 70
     1
 71
     0
 91
     1
 92
     1
 93
     8
 72
     1
 10
102.345600
 20
153.568800
 11
102.345600
 21
103.034400
 72
     1
 10
102.345600
 20
103.034400
 11
100.111200
 21
103.034400
 72
     1
 10
100.111200
 20
103.034400
 11
100.111200
 21
101.001600
 72
     1
 10
100.111200
 20
101.001600
 11
106.680000
 21
101.001600
 72
     1
 10
106.680000
 20
101.001600
 11
106.680000
 21
103.034400
 72
     1
 10
106.680000
 20
103.034400
 11
104.378400
 21
103.034400
 72
     1
 10
104.378400
 20
103.034400
 11
104.378400
 21
153.568800
 72
     1
 10
104.378400
 20
153.568800
 11
102.345600
 21
153.568800
 97
     0
 75
     0
 76
     1
 98
     1
 10
0.000000
 20
0.000000
  0
POLYLINE
  8
0
 62
    31
  6
CONTINUOUS
 66
     1
 40
0.000000
 41
0.000000
 70
     1
  0
VERTEX
  8
0
 62
    31
  6
CONTINUOUS
 10
102.345600
 20
153.568800
  0
VERTEX
  8
0
 62
    31
  6
CONTINUOUS
 10
102.345600
 20
103.034400
  0
VERTEX
  8
0
 62
    31
  6
CONTINUOUS
 10
100.111200
 20
103.034400
  0
VERTEX
  8
0
 62
    31
  6
CONTINUOUS
 10
100.111200
 20
101.001600
  0
VERTEX
  8
0
 62
    31
  6
CONTINUOUS
 10
106.680000
 20
101.001600
  0
VERTEX
  8
0
 62
    31
  6
CONTINUOUS
 10
106.680000
 20
103.034400
  0
VERTEX
  8
0
 62
    31
  6
CONTINUOUS
 10
104.378400
 20
103.034400
  0
VERTEX
  8
0
 62
    31
  6
CONTINUOUS
 10
104.378400
 20
153.568800
  0
SEQEND
  8
0
  0
POLYLINE
  8
0
  6
CONTINUOUS
 66
     1
 40
0.000000
 41
0.000000
 70
     1
  0
VERTEX
  8
0
  6
CONTINUOUS
 10
150.242400
 20
159.465600
  0
VERTEX
  8
0
  6
CONTINUOUS
 10
123.211200
 20
159.465600
  0
VERTEX
  8
0
  6
CONTINUOUS
 10
121.212000
 20
159.465600
  0
VERTEX
  8
0
  6
CONTINUOUS
 10
121.212000
 20
155.584800
  0
VERTEX
  8
0
  6
CONTINUOUS
 10
76.708800
 20
155.584800
  0
VERTEX
  8
0
  6
CONTINUOUS
 10
74.726400
 20
155.584800
  0
VERTEX
  8
0
  6
CONTINUOUS
 10
74.709600
 20
155.584800
  0
VERTEX
  8
0
  6
CONTINUOUS
 10
74.709600
 20
150.696000
  0
VERTEX
  8
0
  6
CONTINUOUS
 10
56.481600
 20
150.696000
  0
VERTEX
  8
0
  6
CONTINUOUS
 10
56.481600
 20
151.519200
  0
VERTEX
  8
0
  6
CONTINUOUS
 10
56.481600
 20
153.518400
  0
VERTEX
  8
0
  6
CONTINUOUS
 10
48.720000
 20
153.518400
  0
VERTEX
  8
0
  6
CONTINUOUS
 10
48.720000
 20
154.526400
  0
VERTEX
  8
0
  6
CONTINUOUS
 10
48.720000
 20
156.525600
  0
VERTEX
  8
0
  6
CONTINUOUS
 10
46.720800
 20
156.525600
  0
VERTEX
  8
0
  6
CONTINUOUS
 10
34.104000
 20
156.525600
  0
VERTEX
  8
0
  6
CONTINUOUS
 10
34.104000
 20
154.526400
  0
VERTEX
  8
0
  6
CONTINUOUS
 10
46.720800
 20
154.526400
  0
VERTEX
  8
0
  6
CONTINUOUS
 10
46.720800
 20
151.536000
  0
VERTEX
  8
0
  6
CONTINUOUS
 10
46.720800
 20
151.519200
  0
VERTEX
  8
0
  6
CONTINUOUS
 10
54.482400
 20
151.519200
  0
VERTEX
  8
0
  6
CONTINUOUS
 10
54.482400
 20
148.696800
  0
VERTEX
  8
0
  6
CONTINUOUS
 10
56.481600
 20
148.696800
  0
VERTEX
  8
0
  6
CONTINUOUS
 10
74.709600
 20
148.696800
  0
VERTEX
  8
0
  6
CONTINUOUS
 10
76.708800
 20
148.696800
  0
VERTEX
  8
0
  6
CONTINUOUS
 10
76.725600
 20
148.696800
  0
VERTEX
  8
0
  6
CONTINUOUS
 10
76.725600
 20
150.696000
  0
VERTEX
  8
0
  6
CONTINUOUS
 10
76.708800
 20
150.696000
  0
VERTEX
  8
0
  6
CONTINUOUS
 10
76.708800
 20
152.745600
  0
VERTEX
  8
0
  6
CONTINUOUS
 10
86.486400
 20
152.745600
  0
VERTEX
  8
0
  6
CONTINUOUS
 10
86.486400
 20
153.585600
  0
VERTEX
  8
0
  6
CONTINUOUS
 10
102.345600
 20
153.585600
  0
VERTEX
  8
0
  6
CONTINUOUS
 10
102.345600
 20
103.034400
  0
VERTEX
  8
0
  6
CONTINUOUS
 10
100.111200
 20
103.034400
  0
VERTEX
  8
0
  6
CONTINUOUS
 10
100.111200
 20
101.001600
  0
VERTEX
  8
0
  6
CONTINUOUS
 10
106.663200
 20
101.001600
  0
VERTEX
  8
0
  6
CONTINUOUS
 10
106.663200
 20
103.034400
  0
VERTEX
  8
0
  6
CONTINUOUS
 10
104.361600
 20
103.034400
  0
VERTEX
  8
0
  6
CONTINUOUS
 10
104.361600
 20
153.585600
  0
VERTEX
  8
0
  6
CONTINUOUS
 10
121.212000
 20
153.585600
  0
VERTEX
  8
0
  6
CONTINUOUS
 10
121.212000
 20
150.511200
  0
VERTEX
  8
0
  6
CONTINUOUS
 10
148.243200
 20
150.511200
  0
VERTEX
  8
0
  6
CONTINUOUS
 10
150.242400
 20
150.511200
  0
VERTEX
  8
0
  6
CONTINUOUS
 10
150.242400
 20
152.510400
  0
VERTEX
  8
0
  6
CONTINUOUS
 10
150.242400
 20
153.484800
  0
VERTEX
  8
0
  6
CONTINUOUS
 10
162.405600
 20
153.484800
  0
VERTEX
  8
0
  6
CONTINUOUS
 10
162.405600
 20
155.484000
  0
VERTEX
  8
0
  6
CONTINUOUS
 10
150.242400
 20
155.484000
  0
VERTEX
  8
0
  6
CONTINUOUS
 10
150.242400
 20
157.466400
  0
SEQEND
  8
0
  0
POLYLINE
  8
0
  6
CONTINUOUS
 66
     1
 40
0.000000
 41
0.000000
 70
     1
  0
VERTEX
  8
0
  6
CONTINUOUS
 10
123.211200
 20
157.466400
  0
VERTEX
  8
0
  6
CONTINUOUS
 10
123.211200
 20
152.510400
  0
VERTEX
  8
0
  6
CONTINUOUS
 10
148.260000
 20
152.510400
  0
VERTEX
  8
0
  6
CONTINUOUS
 10
148.260000
 20
157.466400
  0
SEQEND
  8
0
  0
HATCH
  5
 27611
100
AcDbEntity
  8
0
 62
    31
100
AcDbHatch
 10
0.000000
 20
0.000000
 30
0.000000
210
0.000000
220
0.000000
230
0.016800
  2
SOLID
 70
     1
 71
     0
 91
     1
 92
     1
 93
    24
 72
     1
 10
84.940800
 20
86.368800
 11
84.940800
 21
84.352800
 72
     1
 10
84.940800
 20
84.352800
 11
86.049600
 21
84.352800
 72
     1
 10
86.049600
 20
84.352800
 11
86.049600
 21
43.293600
 72
     1
 10
86.049600
 20
43.293600
 11
34.036800
 21
43.293600
 72
     1
 10
34.036800
 20
43.293600
 11
34.036800
 21
41.294400
 72
     1
 10
34.036800
 20
41.294400
 11
88.065600
 21
41.294400
 72
     1
 10
88.065600
 20
41.294400
 11
88.065600
 21
53.037600
 72
     1
 10
88.065600
 20
53.037600
 11
104.882400
 21
53.037600
 72
     1
 10
104.882400
 20
53.037600
 11
104.882400
 21
83.496000
 72
     1
 10
104.882400
 20
83.496000
 11
162.405600
 21
83.496000
 72
     1
 10
162.405600
 20
83.496000
 11
162.405600
 21
85.680000
 72
     1
 10
162.405600
 20
85.680000
 11
152.325600
 21
85.680000
 72
     1
 10
152.325600
 20
85.680000
 11
152.325600
 21
86.352000
 72
     1
 10
152.325600
 20
86.352000
 11
149.469600
 21
86.352000
 72
     1
 10
149.469600
 20
86.352000
 11
149.469600
 21
85.680000
 72
     1
 10
149.469600
 20
85.680000
 11
101.572800
 21
85.680000
 72
     1
 10
101.572800
 20
85.680000
 11
101.572800
 21
83.546400
 72
     1
 10
101.572800
 20
83.546400
 11
102.866400
 21
83.546400
 72
     1
 10
102.866400
 20
83.546400
 11
102.866400
 21
55.053600
 72
     1
 10
102.866400
 20
55.053600
 11
88.065600
 21
55.053600
 72
     1
 10
88.065600
 20
55.053600
 11
88.065600
 21
84.352800
 72
     1
 10
88.065600
 20
84.352800
 11
88.838400
 21
84.352800
 72
     1
 10
88.838400
 20
84.352800
 11
88.838400
 21
86.368800
 72
     1
 10
88.838400
 20
86.368800
 11
84.940800
 21
86.368800
 97
     0
 75
     0
 76
     1
 98
     1
 10
0.000000
 20
0.000000
  0
POLYLINE
  8
0
 62
    31
  6
CONTINUOUS
 66
     1
 40
0.000000
 41
0.000000
 70
     1
  0
VERTEX
  8
0
 62
    31
  6
CONTINUOUS
 10
84.940800
 20
86.368800
  0
VERTEX
  8
0
 62
    31
  6
CONTINUOUS
 10
84.940800
 20
84.352800
  0
VERTEX
  8
0
 62
    31
  6
CONTINUOUS
 10
86.049600
 20
84.352800
  0
VERTEX
  8
0
 62
    31
  6
CONTINUOUS
 10
86.049600
 20
43.293600
  0
VERTEX
  8
0
 62
    31
  6
CONTINUOUS
 10
34.036800
 20
43.293600
  0
VERTEX
  8
0
 62
    31
  6
CONTINUOUS
 10
34.036800
 20
41.294400
  0
VERTEX
  8
0
 62
    31
  6
CONTINUOUS
 10
88.065600
 20
41.294400
  0
VERTEX
  8
0
 62
    31
  6
CONTINUOUS
 10
88.065600
 20
53.037600
  0
VERTEX
  8
0
 62
    31
  6
CONTINUOUS
 10
104.882400
 20
53.037600
  0
VERTEX
  8
0
 62
    31
  6
CONTINUOUS
 10
104.882400
 20
83.496000
  0
VERTEX
  8
0
 62
    31
  6
CONTINUOUS
 10
162.405600
 20
83.496000
  0
VERTEX
  8
0
 62
    31
  6
CONTINUOUS
 10
162.405600
 20
85.680000
  0
VERTEX
  8
0
 62
    31
  6
CONTINUOUS
 10
152.325600
 20
85.680000
  0
VERTEX
  8
0
 62
    31
  6
CONTINUOUS
 10
152.325600
 20
86.352000
  0
VERTEX
  8
0
 62
    31
  6
CONTINUOUS
 10
149.469600
 20
86.352000
  0
VERTEX
  8
0
 62
    31
  6
CONTINUOUS
 10
149.469600
 20
85.680000
  0
VERTEX
  8
0
 62
    31
  6
CONTINUOUS
 10
101.572800
 20
85.680000
  0
VERTEX
  8
0
 62
    31
  6
CONTINUOUS
 10
101.572800
 20
83.546400
  0
VERTEX
  8
0
 62
    31
  6
CONTINUOUS
 10
102.866400
 20
83.546400
  0
VERTEX
  8
0
 62
    31
  6
CONTINUOUS
 10
102.866400
 20
55.053600
  0
VERTEX
  8
0
 62
    31
  6
CONTINUOUS
 10
88.065600
 20
55.053600
  0
VERTEX
  8
0
 62
    31
  6
CONTINUOUS
 10
88.065600
 20
84.352800
  0
VERTEX
  8
0
 62
    31
  6
CONTINUOUS
 10
88.838400
 20
84.352800
  0
VERTEX
  8
0
 62
    31
  6
CONTINUOUS
 10
88.838400
 20
86.368800
  0
SEQEND
  8
0
  0
HATCH
  5
 27612
100
AcDbEntity
  8
0
 62
    31
100
AcDbHatch
 10
0.000000
 20
0.000000
 30
0.000000
210
0.000000
220
0.000000
230
0.016800
  2
SOLID
 70
     1
 71
     0
 91
     1
 92
     1
 93
     8
 72
     1
 10
68.443200
 20
97.641600
 11
68.443200
 21
86.385600
 72
     1
 10
68.443200
 20
86.385600
 11
34.137600
 21
86.385600
 72
     1
 10
34.137600
 20
86.385600
 11
34.137600
 21
84.369600
 72
     1
 10
34.137600
 20
84.369600
 11
71.870400
 21
84.369600
 72
     1
 10
71.870400
 20
84.369600
 11
71.870400
 21
86.385600
 72
     1
 10
71.870400
 20
86.385600
 11
70.459200
 21
86.385600
 72
     1
 10
70.459200
 20
86.385600
 11
70.459200
 21
97.641600
 72
     1
 10
70.459200
 20
97.641600
 11
68.443200
 21
97.641600
 97
     0
 75
     0
 76
     1
 98
     1
 10
0.000000
 20
0.000000
  0
POLYLINE
  8
0
 62
    31
  6
CONTINUOUS
 66
     1
 40
0.000000
 41
0.000000
 70
     1
  0
VERTEX
  8
0
 62
    31
  6
CONTINUOUS
 10
68.443200
 20
97.641600
  0
VERTEX
  8
0
 62
    31
  6
CONTINUOUS
 10
68.443200
 20
86.385600
  0
VERTEX
  8
0
 62
    31
  6
CONTINUOUS
 10
34.137600
 20
86.385600
  0
VERTEX
  8
0
 62
    31
  6
CONTINUOUS
 10
34.137600
 20
84.369600
  0
VERTEX
  8
0
 62
    31
  6
CONTINUOUS
 10
71.870400
 20
84.369600
  0
VERTEX
  8
0
 62
    31
  6
CONTINUOUS
 10
71.870400
 20
86.385600
  0
VERTEX
  8
0
 62
    31
  6
CONTINUOUS
 10
70.459200
 20
86.385600
  0
VERTEX
  8
0
 62
    31
  6
CONTINUOUS
 10
70.459200
 20
97.641600
  0
SEQEND
  8
0
  0
POLYLINE
  8
0
  6
CONTINUOUS
 66
     1
 40
0.000000
 41
0.000000
 70
     1
  0
VERTEX
  8
0
  6
CONTINUOUS
 10
70.442400
 20
86.385600
  0
VERTEX
  8
0
  6
CONTINUOUS
 10
70.442400
 20
97.641600
  0
VERTEX
  8
0
  6
CONTINUOUS
 10
68.443200
 20
97.641600
  0
VERTEX
  8
0
  6
CONTINUOUS
 10
68.443200
 20
86.385600
  0
VERTEX
  8
0
  6
CONTINUOUS
 10
34.137600
 20
86.385600
  0
VERTEX
  8
0
  6
CONTINUOUS
 10
34.137600
 20
84.386400
  0
VERTEX
  8
0
  6
CONTINUOUS
 10
71.853600
 20
84.386400
  0
VERTEX
  8
0
  6
CONTINUOUS
 10
71.853600
 20
86.385600
  0
SEQEND
  8
0
  0
POLYLINE
  8
0
  6
CONTINUOUS
 66
     1
 40
0.000000
 41
0.000000
 70
     1
  0
VERTEX
  8
0
  6
CONTINUOUS
 10
88.821600
 20
84.369600
  0
VERTEX
  8
0
  6
CONTINUOUS
 10
88.821600
 20
86.368800
  0
VERTEX
  8
0
  6
CONTINUOUS
 10
84.940800
 20
86.368800
  0
VERTEX
  8
0
  6
CONTINUOUS
 10
84.940800
 20
84.369600
  0
VERTEX
  8
0
  6
CONTINUOUS
 10
86.049600
 20
84.369600
  0
VERTEX
  8
0
  6
CONTINUOUS
 10
86.049600
 20
43.293600
  0
VERTEX
  8
0
  6
CONTINUOUS
 10
34.036800
 20
43.293600
  0
VERTEX
  8
0
  6
CONTINUOUS
 10
34.036800
 20
41.294400
  0
VERTEX
  8
0
  6
CONTINUOUS
 10
88.048800
 20
41.294400
  0
VERTEX
  8
0
  6
CONTINUOUS
 10
88.048800
 20
43.293600
  0
VERTEX
  8
0
  6
CONTINUOUS
 10
88.048800
 20
53.054400
  0
VERTEX
  8
0
  6
CONTINUOUS
 10
104.865600
 20
53.054400
  0
VERTEX
  8
0
  6
CONTINUOUS
 10
104.865600
 20
55.053600
  0
VERTEX
  8
0
  6
CONTINUOUS
 10
104.865600
 20
83.512800
  0
VERTEX
  8
0
  6
CONTINUOUS
 10
162.388800
 20
83.512800
  0
VERTEX
  8
0
  6
CONTINUOUS
 10
162.388800
 20
85.680000
  0
VERTEX
  8
0
  6
CONTINUOUS
 10
152.308800
 20
85.680000
  0
VERTEX
  8
0
  6
CONTINUOUS
 10
152.308800
 20
86.352000
  0
VERTEX
  8
0
  6
CONTINUOUS
 10
149.469600
 20
86.352000
  0
VERTEX
  8
0
  6
CONTINUOUS
 10
149.469600
 20
85.680000
  0
VERTEX
  8
0
  6
CONTINUOUS
 10
101.572800
 20
85.680000
  0
VERTEX
  8
0
  6
CONTINUOUS
 10
101.572800
 20
83.563200
  0
VERTEX
  8
0
  6
CONTINUOUS
 10
102.866400
 20
83.563200
  0
VERTEX
  8
0
  6
CONTINUOUS
 10
102.866400
 20
55.053600
  0
VERTEX
  8
0
  6
CONTINUOUS
 10
88.048800
 20
55.053600
  0
VERTEX
  8
0
  6
CONTINUOUS
 10
88.048800
 20
84.369600
  0
SEQEND
  8
0
  0
HATCH
  5
 27613
100
AcDbEntity
  8
0
 62
    31
100
AcDbHatch
 10
0.000000
 20
0.000000
 30
0.000000
210
0.000000
220
0.000000
230
0.016800
  2
SOLID
 70
     1
 71
     0
 91
     1
 92
     1
 93
    14
 72
     1
 10
88.620000
 20
103.084800
 11
88.132800
 21
103.084800
 72
     1
 10
88.132800
 20
103.084800
 11
88.132800
 21
110.409600
 72
     1
 10
88.132800
 20
110.409600
 11
88.132800
 21
112.408800
 72
     1
 10
88.132800
 20
112.408800
 11
34.120800
 21
112.408800
 72
     1
 10
34.120800
 20
112.408800
 11
34.120800
 21
110.409600
 72
     1
 10
34.120800
 20
110.409600
 11
68.426400
 21
110.409600
 72
     1
 10
68.426400
 20
110.409600
 11
68.426400
 21
109.267200
 72
     1
 10
68.426400
 20
109.267200
 11
70.425600
 21
109.267200
 72
     1
 10
70.425600
 20
109.267200
 11
70.425600
 21
110.409600
 72
     1
 10
70.425600
 20
110.409600
 11
86.133600
 21
110.409600
 72
     1
 10
86.133600
 20
110.409600
 11
86.133600
 21
100.984800
 72
     1
 10
86.133600
 20
100.984800
 11
88.132800
 21
100.984800
 72
     1
 10
88.132800
 20
100.984800
 11
88.620000
 21
100.984800
 72
     1
 10
88.620000
 20
100.984800
 11
88.620000
 21
103.084800
 97
     0
 75
     0
 76
     1
 98
     1
 10
0.000000
 20
0.000000
  0
POLYLINE
  8
0
  6
CONTINUOUS
 66
     1
 40
0.000000
 41
0.000000
 70
     1
  0
VERTEX
  8
0
  6
CONTINUOUS
 10
88.620000
 20
103.084800
  0
VERTEX
  8
0
  6
CONTINUOUS
 10
88.132800
 20
103.084800
  0
VERTEX
  8
0
  6
CONTINUOUS
 10
88.132800
 20
110.409600
  0
VERTEX
  8
0
  6
CONTINUOUS
 10
88.132800
 20
112.408800
  0
VERTEX
  8
0
  6
CONTINUOUS
 10
34.120800
 20
112.408800
  0
VERTEX
  8
0
  6
CONTINUOUS
 10
34.120800
 20
110.409600
  0
VERTEX
  8
0
  6
CONTINUOUS
 10
68.426400
 20
110.409600
  0
VERTEX
  8
0
  6
CONTINUOUS
 10
68.426400
 20
109.267200
  0
VERTEX
  8
0
  6
CONTINUOUS
 10
70.425600
 20
109.267200
  0
VERTEX
  8
0
  6
CONTINUOUS
 10
70.425600
 20
110.409600
  0
VERTEX
  8
0
  6
CONTINUOUS
 10
86.133600
 20
110.409600
  0
VERTEX
  8
0
  6
CONTINUOUS
 10
86.133600
 20
100.984800
  0
VERTEX
  8
0
  6
CONTINUOUS
 10
88.132800
 20
100.984800
  0
VERTEX
  8
0
  6
CONTINUOUS
 10
88.620000
 20
100.984800
  0
SEQEND
  8
0
  0
MTEXT
  5
 27614
100
AcDbEntity
100
AcDbMText
 71
     1
 72
     5
  8
0
 10
145.370400
 20
136.634400
 40
2.838751
  1
\fTimes New Roman|b0|i0|c0|p18;Living room
 41
0.000000
  0
MTEXT
  5
 27615
100
AcDbEntity
100
AcDbMText
 71
     1
 72
     5
  8
0
 10
326.709600
 20
132.300000
 40
2.838751
  1
\fTimes New Roman|b0|i0|c0|p18;Bedroom2
 41
0.000000
  0
MTEXT
  5
 27616
100
AcDbEntity
100
AcDbMText
 71
     1
 72
     5
  8
0
 10
42.856800
 20
95.491200
 40
2.838751
  1
\fTimes New Roman|b0|i0|c0|p18;Bathroom
 41
0.000000
  0
MTEXT
  5
 27617
100
AcDbEntity
100
AcDbMText
 71
     1
 72
     5
  8
0
 10
46.771200
 20
58.144800
 40
2.838751
  1
\fTimes New Roman|b0|i0|c0|p18;Study
 41
0.000000
  0
MTEXT
  5
 27618
100
AcDbEntity
100
AcDbMText
 71
     1
 72
     5
  8
0
 10
90.972000
 20
71.097600
 40
2.838751
  1
\fTimes New Roman|b0|i0|c0|p18;Toilet
 41
0.000000
  0
MTEXT
  5
 27619
100
AcDbEntity
100
AcDbMText
 71
     1
 72
     5
  8
0
 10
126.554400
 20
90.014400
 40
2.838751
  1
\fTimes New Roman|b0|i0|c0|p18;Hall
 41
0.000000
  0
HATCH
  5
 27620
100
AcDbEntity
  8
0
 62
     7
100
AcDbHatch
 10
0.000000
 20
0.000000
 30
0.000000
210
0.000000
220
0.000000
230
0.016800
  2
SOLID
 70
     1
 71
     0
 91
     1
 92
     1
 93
     4
 72
     1
 10
26.796000
 20
17.001600
 11
40.135200
 21
17.001600
 72
     1
 10
40.135200
 20
17.001600
 11
40.135200
 21
16.732800
 72
     1
 10
40.135200
 20
16.732800
 11
26.796000
 21
16.732800
 72
     1
 10
26.796000
 20
16.732800
 11
26.796000
 21
17.001600
 97
     0
 75
     0
 76
     1
 98
     1
 10
0.000000
 20
0.000000
  0
POLYLINE
  8
0
  6
CONTINUOUS
 66
     1
 40
0.000000
 41
0.000000
 70
     1
  0
VERTEX
  8
0
  6
CONTINUOUS
 10
26.796000
 20
17.001600
  0
VERTEX
  8
0
  6
CONTINUOUS
 10
40.135200
 20
17.001600
  0
VERTEX
  8
0
  6
CONTINUOUS
 10
40.135200
 20
16.732800
  0
VERTEX
  8
0
  6
CONTINUOUS
 10
26.796000
 20
16.732800
  0
SEQEND
  8
0
  0
HATCH
  5
 27621
100
AcDbEntity
  8
0
100
AcDbHatch
 10
0.000000
 20
0.000000
 30
0.000000
210
0.000000
220
0.000000
230
0.016800
  2
SOLID
 70
     1
 71
     0
 91
     1
 92
     1
 93
     4
 72
     1
 10
40.135200
 20
17.001600
 11
53.457600
 21
17.001600
 72
     1
 10
53.457600
 20
17.001600
 11
53.457600
 21
16.732800
 72
     1
 10
53.457600
 20
16.732800
 11
40.135200
 21
16.732800
 72
     1
 10
40.135200
 20
16.732800
 11
40.135200
 21
17.001600
 97
     0
 75
     0
 76
     1
 98
     1
 10
0.000000
 20
0.000000
  0
POLYLINE
  8
0
  6
CONTINUOUS
 66
     1
 40
0.000000
 41
0.000000
 70
     1
  0
VERTEX
  8
0
  6
CONTINUOUS
 10
40.135200
 20
17.001600
  0
VERTEX
  8
0
  6
CONTINUOUS
 10
53.457600
 20
17.001600
  0
VERTEX
  8
0
  6
CONTINUOUS
 10
53.457600
 20
16.732800
  0
VERTEX
  8
0
  6
CONTINUOUS
 10
40.135200
 20
16.732800
  0
SEQEND
  8
0
  0
HATCH
  5
 27622
100
AcDbEntity
  8
0
 62
     7
100
AcDbHatch
 10
0.000000
 20
0.000000
 30
0.000000
210
0.000000
220
0.000000
230
0.016800
  2
SOLID
 70
     1
 71
     0
 91
     1
 92
     1
 93
     4
 72
     1
 10
53.457600
 20
17.001600
 11
66.796800
 21
17.001600
 72
     1
 10
66.796800
 20
17.001600
 11
66.796800
 21
16.732800
 72
     1
 10
66.796800
 20
16.732800
 11
53.457600
 21
16.732800
 72
     1
 10
53.457600
 20
16.732800
 11
53.457600
 21
17.001600
 97
     0
 75
     0
 76
     1
 98
     1
 10
0.000000
 20
0.000000
  0
POLYLINE
  8
0
  6
CONTINUOUS
 66
     1
 40
0.000000
 41
0.000000
 70
     1
  0
VERTEX
  8
0
  6
CONTINUOUS
 10
53.457600
 20
17.001600
  0
VERTEX
  8
0
  6
CONTINUOUS
 10
66.796800
 20
17.001600
  0
VERTEX
  8
0
  6
CONTINUOUS
 10
66.796800
 20
16.732800
  0
VERTEX
  8
0
  6
CONTINUOUS
 10
53.457600
 20
16.732800
  0
SEQEND
  8
0
  0
HATCH
  5
 27623
100
AcDbEntity
  8
0
100
AcDbHatch
 10
0.000000
 20
0.000000
 30
0.000000
210
0.000000
220
0.000000
230
0.016800
  2
SOLID
 70
     1
 71
     0
 91
     1
 92
     1
 93
     4
 72
     1
 10
66.796800
 20
17.001600
 11
80.136000
 21
17.001600
 72
     1
 10
80.136000
 20
17.001600
 11
80.136000
 21
16.732800
 72
     1
 10
80.136000
 20
16.732800
 11
66.796800
 21
16.732800
 72
     1
 10
66.796800
 20
16.732800
 11
66.796800
 21
17.001600
 97
     0
 75
     0
 76
     1
 98
     1
 10
0.000000
 20
0.000000
  0
POLYLINE
  8
0
  6
CONTINUOUS
 66
     1
 40
0.000000
 41
0.000000
 70
     1
  0
VERTEX
  8
0
  6
CONTINUOUS
 10
66.796800
 20
17.001600
  0
VERTEX
  8
0
  6
CONTINUOUS
 10
80.136000
 20
17.001600
  0
VERTEX
  8
0
  6
CONTINUOUS
 10
80.136000
 20
16.732800
  0
VERTEX
  8
0
  6
CONTINUOUS
 10
66.796800
 20
16.732800
  0
SEQEND
  8
0
  0
HATCH
  5
 27624
100
AcDbEntity
  8
0
 62
     7
100
AcDbHatch
 10
0.000000
 20
0.000000
 30
0.000000
210
0.000000
220
0.000000
230
0.016800
  2
SOLID
 70
     1
 71
     0
 91
     1
 92
     1
 93
     4
 72
     1
 10
80.136000
 20
17.001600
 11
93.458400
 21
17.001600
 72
     1
 10
93.458400
 20
17.001600
 11
93.458400
 21
16.732800
 72
     1
 10
93.458400
 20
16.732800
 11
80.136000
 21
16.732800
 72
     1
 10
80.136000
 20
16.732800
 11
80.136000
 21
17.001600
 97
     0
 75
     0
 76
     1
 98
     1
 10
0.000000
 20
0.000000
  0
POLYLINE
  8
0
  6
CONTINUOUS
 66
     1
 40
0.000000
 41
0.000000
 70
     1
  0
VERTEX
  8
0
  6
CONTINUOUS
 10
80.136000
 20
17.001600
  0
VERTEX
  8
0
  6
CONTINUOUS
 10
93.458400
 20
17.001600
  0
VERTEX
  8
0
  6
CONTINUOUS
 10
93.458400
 20
16.732800
  0
VERTEX
  8
0
  6
CONTINUOUS
 10
80.136000
 20
16.732800
  0
SEQEND
  8
0
  0
HATCH
  5
 27625
100
AcDbEntity
  8
0
100
AcDbHatch
 10
0.000000
 20
0.000000
 30
0.000000
210
0.000000
220
0.000000
230
0.016800
  2
SOLID
 70
     1
 71
     0
 91
     1
 92
     1
 93
     4
 72
     1
 10
93.458400
 20
17.001600
 11
106.797600
 21
17.001600
 72
     1
 10
106.797600
 20
17.001600
 11
106.797600
 21
16.732800
 72
     1
 10
106.797600
 20
16.732800
 11
93.458400
 21
16.732800
 72
     1
 10
93.458400
 20
16.732800
 11
93.458400
 21
17.001600
 97
     0
 75
     0
 76
     1
 98
     1
 10
0.000000
 20
0.000000
  0
POLYLINE
  8
0
  6
CONTINUOUS
 66
     1
 40
0.000000
 41
0.000000
 70
     1
  0
VERTEX
  8
0
  6
CONTINUOUS
 10
93.458400
 20
17.001600
  0
VERTEX
  8
0
  6
CONTINUOUS
 10
106.797600
 20
17.001600
  0
VERTEX
  8
0
  6
CONTINUOUS
 10
106.797600
 20
16.732800
  0
VERTEX
  8
0
  6
CONTINUOUS
 10
93.458400
 20
16.732800
  0
SEQEND
  8
0
  0
HATCH
  5
 27626
100
AcDbEntity
  8
0
 62
     7
100
AcDbHatch
 10
0.000000
 20
0.000000
 30
0.000000
210
0.000000
220
0.000000
230
0.016800
  2
SOLID
 70
     1
 71
     0
 91
     1
 92
     1
 93
     4
 72
     1
 10
106.797600
 20
17.001600
 11
120.136800
 21
17.001600
 72
     1
 10
120.136800
 20
17.001600
 11
120.136800
 21
16.732800
 72
     1
 10
120.136800
 20
16.732800
 11
106.797600
 21
16.732800
 72
     1
 10
106.797600
 20
16.732800
 11
106.797600
 21
17.001600
 97
     0
 75
     0
 76
     1
 98
     1
 10
0.000000
 20
0.000000
  0
POLYLINE
  8
0
  6
CONTINUOUS
 66
     1
 40
0.000000
 41
0.000000
 70
     1
  0
VERTEX
  8
0
  6
CONTINUOUS
 10
106.797600
 20
17.001600
  0
VERTEX
  8
0
  6
CONTINUOUS
 10
120.136800
 20
17.001600
  0
VERTEX
  8
0
  6
CONTINUOUS
 10
120.136800
 20
16.732800
  0
VERTEX
  8
0
  6
CONTINUOUS
 10
106.797600
 20
16.732800
  0
SEQEND
  8
0
  0
HATCH
  5
 27627
100
AcDbEntity
  8
0
100
AcDbHatch
 10
0.000000
 20
0.000000
 30
0.000000
210
0.000000
220
0.000000
230
0.016800
  2
SOLID
 70
     1
 71
     0
 91
     1
 92
     1
 93
     4
 72
     1
 10
120.136800
 20
17.001600
 11
133.459200
 21
17.001600
 72
     1
 10
133.459200
 20
17.001600
 11
133.459200
 21
16.732800
 72
     1
 10
133.459200
 20
16.732800
 11
120.136800
 21
16.732800
 72
     1
 10
120.136800
 20
16.732800
 11
120.136800
 21
17.001600
 97
     0
 75
     0
 76
     1
 98
     1
 10
0.000000
 20
0.000000
  0
POLYLINE
  8
0
  6
CONTINUOUS
 66
     1
 40
0.000000
 41
0.000000
 70
     1
  0
VERTEX
  8
0
  6
CONTINUOUS
 10
120.136800
 20
17.001600
  0
VERTEX
  8
0
  6
CONTINUOUS
 10
133.459200
 20
17.001600
  0
VERTEX
  8
0
  6
CONTINUOUS
 10
133.459200
 20
16.732800
  0
VERTEX
  8
0
  6
CONTINUOUS
 10
120.136800
 20
16.732800
  0
SEQEND
  8
0
  0
HATCH
  5
 27628
100
AcDbEntity
  8
0
 62
     7
100
AcDbHatch
 10
0.000000
 20
0.000000
 30
0.000000
210
0.000000
220
0.000000
230
0.016800
  2
SOLID
 70
     1
 71
     0
 91
     1
 92
     1
 93
     4
 72
     1
 10
133.459200
 20
17.001600
 11
146.798400
 21
17.001600
 72
     1
 10
146.798400
 20
17.001600
 11
146.798400
 21
16.732800
 72
     1
 10
146.798400
 20
16.732800
 11
133.459200
 21
16.732800
 72
     1
 10
133.459200
 20
16.732800
 11
133.459200
 21
17.001600
 97
     0
 75
     0
 76
     1
 98
     1
 10
0.000000
 20
0.000000
  0
POLYLINE
  8
0
  6
CONTINUOUS
 66
     1
 40
0.000000
 41
0.000000
 70
     1
  0
VERTEX
  8
0
  6
CONTINUOUS
 10
133.459200
 20
17.001600
  0
VERTEX
  8
0
  6
CONTINUOUS
 10
146.798400
 20
17.001600
  0
VERTEX
  8
0
  6
CONTINUOUS
 10
146.798400
 20
16.732800
  0
VERTEX
  8
0
  6
CONTINUOUS
 10
133.459200
 20
16.732800
  0
SEQEND
  8
0
  0
HATCH
  5
 27629
100
AcDbEntity
  8
0
100
AcDbHatch
 10
0.000000
 20
0.000000
 30
0.000000
210
0.000000
220
0.000000
230
0.016800
  2
SOLID
 70
     1
 71
     0
 91
     1
 92
     1
 93
     4
 72
     1
 10
146.798400
 20
17.001600
 11
160.120800
 21
17.001600
 72
     1
 10
160.120800
 20
17.001600
 11
160.120800
 21
16.732800
 72
     1
 10
160.120800
 20
16.732800
 11
146.798400
 21
16.732800
 72
     1
 10
146.798400
 20
16.732800
 11
146.798400
 21
17.001600
 97
     0
 75
     0
 76
     1
 98
     1
 10
0.000000
 20
0.000000
  0
POLYLINE
  8
0
  6
CONTINUOUS
 66
     1
 40
0.000000
 41
0.000000
 70
     1
  0
VERTEX
  8
0
  6
CONTINUOUS
 10
146.798400
 20
17.001600
  0
VERTEX
  8
0
  6
CONTINUOUS
 10
160.120800
 20
17.001600
  0
VERTEX
  8
0
  6
CONTINUOUS
 10
160.120800
 20
16.732800
  0
VERTEX
  8
0
  6
CONTINUOUS
 10
146.798400
 20
16.732800
  0
SEQEND
  8
0
  0
HATCH
  5
 27630
100
AcDbEntity
  8
0
 62
     7
100
AcDbHatch
 10
0.000000
 20
0.000000
 30
0.000000
210
0.000000
220
0.000000
230
0.016800
  2
SOLID
 70
     1
 71
     0
 91
     1
 92
     1
 93
     4
 72
     1
 10
160.120800
 20
17.001600
 11
173.460000
 21
17.001600
 72
     1
 10
173.460000
 20
17.001600
 11
173.460000
 21
16.732800
 72
     1
 10
173.460000
 20
16.732800
 11
160.120800
 21
16.732800
 72
     1
 10
160.120800
 20
16.732800
 11
160.120800
 21
17.001600
 97
     0
 75
     0
 76
     1
 98
     1
 10
0.000000
 20
0.000000
  0
POLYLINE
  8
0
  6
CONTINUOUS
 66
     1
 40
0.000000
 41
0.000000
 70
     1
  0
VERTEX
  8
0
  6
CONTINUOUS
 10
160.120800
 20
17.001600
  0
VERTEX
  8
0
  6
CONTINUOUS
 10
173.460000
 20
17.001600
  0
VERTEX
  8
0
  6
CONTINUOUS
 10
173.460000
 20
16.732800
  0
VERTEX
  8
0
  6
CONTINUOUS
 10
160.120800
 20
16.732800
  0
SEQEND
  8
0
  0
MTEXT
  5
 27631
100
AcDbEntity
100
AcDbMText
 71
     1
 72
     5
  8
0
 10
26.275200
 20
18.698400
 40
2.854789
  1
\fArial|b0|i0|c0|p18;Scale:metres
 41
0.000000
  0
MTEXT
  5
 27632
100
AcDbEntity
100
AcDbMText
 71
     1
 72
     5
  8
0
 10
26.577600
 20
14.128800
 40
1.555700
  1
\fArial|b0|i0|c0|p18;0
 41
0.000000
  0
MTEXT
  5
 27633
100
AcDbEntity
100
AcDbMText
 71
     1
 72
     5
  8
0
 10
39.866400
 20
14.112000
 40
1.555700
  1
\fArial|b0|i0|c0|p18;1
 41
0.000000
  0
MTEXT
  5
 27634
100
AcDbEntity
100
AcDbMText
 71
     1
 72
     5
  8
0
 10
53.138400
 20
14.128800
 40
1.555700
  1
\fArial|b0|i0|c0|p18;2
 41
0.000000
  0
MTEXT
  5
 27635
100
AcDbEntity
100
AcDbMText
 71
     1
 72
     5
  8
0
 10
66.410400
 20
14.128800
 40
1.555700
  1
\fArial|b0|i0|c0|p18;3
 41
0.000000
  0
MTEXT
  5
 27636
100
AcDbEntity
100
AcDbMText
 71
     1
 72
     5
  8
0
 10
79.682400
 20
14.145600
 40
1.555700
  1
\fArial|b0|i0|c0|p18;4
 41
0.000000
  0
MTEXT
  5
 27637
100
AcDbEntity
100
AcDbMText
 71
     1
 72
     5
  8
0
 10
92.954400
 20
14.145600
 40
1.555700
  1
\fArial|b0|i0|c0|p18;5
 41
0.000000
  0
MTEXT
  5
 27638
100
AcDbEntity
100
AcDbMText
 71
     1
 72
     5
  8
0
 10
106.226400
 20
14.112000
 40
1.555700
  1
\fArial|b0|i0|c0|p18;6
 41
0.000000
  0
MTEXT
  5
 27639
100
AcDbEntity
100
AcDbMText
 71
     1
 72
     5
  8
0
 10
119.498400
 20
14.128800
 40
1.555700
  1
\fArial|b0|i0|c0|p18;7
 41
0.000000
  0
MTEXT
  5
 27640
100
AcDbEntity
100
AcDbMText
 71
     1
 72
     5
  8
0
 10
132.770400
 20
14.128800
 40
1.555700
  1
\fArial|b0|i0|c0|p18;8
 41
0.000000
  0
MTEXT
  5
 27641
100
AcDbEntity
100
AcDbMText
 71
     1
 72
     5
  8
0
 10
146.059200
 20
14.145600
 40
1.555700
  1
\fArial|b0|i0|c0|p18;9
 41
0.000000
  0
MTEXT
  5
 27642
100
AcDbEntity
100
AcDbMText
 71
     1
 72
     5
  8
0
 10
159.331200
 20
13.809600
 40
1.555700
  1
\fArial|b0|i0|c0|p18;10
 41
0.000000
  0
MTEXT
  5
 27643
100
AcDbEntity
100
AcDbMText
 71
     1
 72
     5
  8
0
 10
284.928000
 20
131.140800
 40
2.838751
  1
\fTimes New Roman|b0|i0|c0|p18;Bedroom1
 41
0.000000
  0
MTEXT
  5
 27644
100
AcDbEntity
100
AcDbMText
 71
     1
 72
     5
  8
0
 10
277.435200
 20
63.235200
 40
2.854789
  1
\fArial|b0|i0|c0|p18;Box Room
 41
0.000000
  0
MTEXT
  5
 27645
100
AcDbEntity
100
AcDbMText
 71
     1
 72
     5
  8
0
 10
328.322400
 20
91.728000
 40
2.854789
  1
\fArial|b0|i0|c0|p18;Cupboard
 41
0.000000
  0
MTEXT
  5
 27646
100
AcDbEntity
100
AcDbMText
 71
     1
 72
     5
  8
0
 10
26.695200
 20
192.813600
 40
8.355873
  1
\fArial|b0|i0|c0|p18;Current Layout
 41
0.000000
  0
HATCH
  5
 27647
100
AcDbEntity
  8
0
 62
   254
100
AcDbHatch
 10
0.000000
 20
0.000000
 30
0.000000
210
0.000000
220
0.000000
230
0.016800
  2
SOLID
 70
     1
 71
     0
 91
     1
 92
     1
 93
     4
 72
     1
 10
151.905600
 20
114.744000
 11
162.456000
 21
114.744000
 72
     1
 10
162.456000
 20
114.744000
 11
162.456000
 21
107.940000
 72
     1
 10
162.456000
 20
107.940000
 11
151.905600
 21
114.408000
 72
     1
 10
151.905600
 20
114.408000
 11
151.905600
 21
114.744000
 97
     0
 75
     0
 76
     1
 98
     1
 10
0.000000
 20
0.000000
  0
POLYLINE
  8
0
  6
CONTINUOUS
 66
     1
 40
0.000000
 41
0.000000
 70
     1
  0
VERTEX
  8
0
  6
CONTINUOUS
 10
151.905600
 20
114.744000
  0
VERTEX
  8
0
  6
CONTINUOUS
 10
162.456000
 20
114.744000
  0
VERTEX
  8
0
  6
CONTINUOUS
 10
162.456000
 20
107.940000
  0
VERTEX
  8
0
  6
CONTINUOUS
 10
151.905600
 20
114.408000
  0
SEQEND
  8
0
  0
HATCH
  5
 27648
100
AcDbEntity
  8
0
 62
   254
100
AcDbHatch
 10
0.000000
 20
0.000000
 30
0.000000
210
0.000000
220
0.000000
230
0.016800
  2
SOLID
 70
     1
 71
     0
 91
     1
 92
     1
 93
     5
 72
     1
 10
151.905600
 20
114.542400
 11
162.456000
 21
108.141600
 72
     1
 10
162.456000
 20
108.141600
 11
162.456000
 21
103.152000
 72
     1
 10
162.456000
 20
103.152000
 11
157.180800
 21
103.152000
 72
     1
 10
157.180800
 20
103.152000
 11
151.485600
 21
114.004800
 72
     1
 10
151.485600
 20
114.004800
 11
151.905600
 21
114.542400
 97
     0
 75
     0
 76
     1
 98
     1
 10
0.000000
 20
0.000000
  0
POLYLINE
  8
0
  6
CONTINUOUS
 66
     1
 40
0.000000
 41
0.000000
 70
     1
  0
VERTEX
  8
0
  6
CONTINUOUS
 10
151.905600
 20
114.542400
  0
VERTEX
  8
0
  6
CONTINUOUS
 10
162.456000
 20
108.141600
  0
VERTEX
  8
0
  6
CONTINUOUS
 10
162.456000
 20
103.152000
  0
VERTEX
  8
0
  6
CONTINUOUS
 10
157.180800
 20
103.152000
  0
VERTEX
  8
0
  6
CONTINUOUS
 10
151.485600
 20
114.004800
  0
SEQEND
  8
0
  0
HATCH
  5
 27649
100
AcDbEntity
  8
0
 62
   254
100
AcDbHatch
 10
0.000000
 20
0.000000
 30
0.000000
210
0.000000
220
0.000000
230
0.016800
  2
SOLID
 70
     1
 71
     0
 91
     1
 92
     1
 93
     4
 72
     1
 10
151.132800
 20
114.072000
 11
151.132800
 21
103.152000
 72
     1
 10
151.132800
 20
103.152000
 11
157.315200
 21
103.152000
 72
     1
 10
157.315200
 20
103.152000
 11
151.552800
 21
114.072000
 72
     1
 10
151.552800
 20
114.072000
 11
151.132800
 21
114.072000
 97
     0
 75
     0
 76
     1
 98
     1
 10
0.000000
 20
0.000000
  0
POLYLINE
  8
0
  6
CONTINUOUS
 66
     1
 40
0.000000
 41
0.000000
 70
     1
  0
VERTEX
  8
0
  6
CONTINUOUS
 10
151.132800
 20
114.072000
  0
VERTEX
  8
0
  6
CONTINUOUS
 10
151.132800
 20
103.152000
  0
VERTEX
  8
0
  6
CONTINUOUS
 10
157.315200
 20
103.152000
  0
VERTEX
  8
0
  6
CONTINUOUS
 10
151.552800
 20
114.072000
  0
SEQEND
  8
0
  0
HATCH
  5
 27650
100
AcDbEntity
  8
0
 62
   254
100
AcDbHatch
 10
0.000000
 20
0.000000
 30
0.000000
210
0.000000
220
0.000000
230
0.016800
  2
SOLID
 70
     1
 71
     0
 91
     1
 92
     1
 93
     4
 72
     1
 10
151.200000
 20
115.416000
 11
148.008000
 21
115.416000
 72
     1
 10
148.008000
 20
115.416000
 11
148.008000
 21
103.152000
 72
     1
 10
148.008000
 20
103.152000
 11
151.200000
 21
103.152000
 72
     1
 10
151.200000
 20
103.152000
 11
151.200000
 21
115.416000
 97
     0
 75
     0
 76
     1
 98
     1
 10
0.000000
 20
0.000000
  0
POLYLINE
  8
0
  6
CONTINUOUS
 66
     1
 40
0.000000
 41
0.000000
 70
     1
  0
VERTEX
  8
0
  6
CONTINUOUS
 10
151.200000
 20
115.416000
  0
VERTEX
  8
0
  6
CONTINUOUS
 10
148.008000
 20
115.416000
  0
VERTEX
  8
0
  6
CONTINUOUS
 10
148.008000
 20
103.152000
  0
VERTEX
  8
0
  6
CONTINUOUS
 10
151.200000
 20
103.152000
  0
SEQEND
  8
0
  0
HATCH
  5
 27651
100
AcDbEntity
  8
0
 62
   254
100
AcDbHatch
 10
0.000000
 20
0.000000
 30
0.000000
210
0.000000
220
0.000000
230
0.016800
  2
SOLID
 70
     1
 71
     0
 91
     1
 92
     1
 93
     4
 72
     1
 10
148.024800
 20
115.416000
 11
144.832800
 21
115.416000
 72
     1
 10
144.832800
 20
115.416000
 11
144.832800
 21
103.152000
 72
     1
 10
144.832800
 20
103.152000
 11
148.024800
 21
103.152000
 72
     1
 10
148.024800
 20
103.152000
 11
148.024800
 21
115.416000
 97
     0
 75
     0
 76
     1
 98
     1
 10
0.000000
 20
0.000000
  0
POLYLINE
  8
0
  6
CONTINUOUS
 66
     1
 40
0.000000
 41
0.000000
 70
     1
  0
VERTEX
  8
0
  6
CONTINUOUS
 10
148.024800
 20
115.416000
  0
VERTEX
  8
0
  6
CONTINUOUS
 10
144.832800
 20
115.416000
  0
VERTEX
  8
0
  6
CONTINUOUS
 10
144.832800
 20
103.152000
  0
VERTEX
  8
0
  6
CONTINUOUS
 10
148.024800
 20
103.152000
  0
SEQEND
  8
0
  0
HATCH
  5
 27652
100
AcDbEntity
  8
0
 62
   254
100
AcDbHatch
 10
0.000000
 20
0.000000
 30
0.000000
210
0.000000
220
0.000000
230
0.016800
  2
SOLID
 70
     1
 71
     0
 91
     1
 92
     1
 93
     4
 72
     1
 10
144.849600
 20
115.416000
 11
141.657600
 21
115.416000
 72
     1
 10
141.657600
 20
115.416000
 11
141.657600
 21
103.152000
 72
     1
 10
141.657600
 20
103.152000
 11
144.849600
 21
103.152000
 72
     1
 10
144.849600
 20
103.152000
 11
144.849600
 21
115.416000
 97
     0
 75
     0
 76
     1
 98
     1
 10
0.000000
 20
0.000000
  0
POLYLINE
  8
0
  6
CONTINUOUS
 66
     1
 40
0.000000
 41
0.000000
 70
     1
  0
VERTEX
  8
0
  6
CONTINUOUS
 10
144.849600
 20
115.416000
  0
VERTEX
  8
0
  6
CONTINUOUS
 10
141.657600
 20
115.416000
  0
VERTEX
  8
0
  6
CONTINUOUS
 10
141.657600
 20
103.152000
  0
VERTEX
  8
0
  6
CONTINUOUS
 10
144.849600
 20
103.152000
  0
SEQEND
  8
0
  0
HATCH
  5
 27653
100
AcDbEntity
  8
0
 62
   254
100
AcDbHatch
 10
0.000000
 20
0.000000
 30
0.000000
210
0.000000
220
0.000000
230
0.016800
  2
SOLID
 70
     1
 71
     0
 91
     1
 92
     1
 93
     4
 72
     1
 10
141.674400
 20
115.416000
 11
138.482400
 21
115.416000
 72
     1
 10
138.482400
 20
115.416000
 11
138.482400
 21
103.152000
 72
     1
 10
138.482400
 20
103.152000
 11
141.674400
 21
103.152000
 72
     1
 10
141.674400
 20
103.152000
 11
141.674400
 21
115.416000
 97
     0
 75
     0
 76
     1
 98
     1
 10
0.000000
 20
0.000000
  0
POLYLINE
  8
0
  6
CONTINUOUS
 66
     1
 40
0.000000
 41
0.000000
 70
     1
  0
VERTEX
  8
0
  6
CONTINUOUS
 10
141.674400
 20
115.416000
  0
VERTEX
  8
0
  6
CONTINUOUS
 10
138.482400
 20
115.416000
  0
VERTEX
  8
0
  6
CONTINUOUS
 10
138.482400
 20
103.152000
  0
VERTEX
  8
0
  6
CONTINUOUS
 10
141.674400
 20
103.152000
  0
SEQEND
  8
0
  0
HATCH
  5
 27654
100
AcDbEntity
  8
0
 62
   254
100
AcDbHatch
 10
0.000000
 20
0.000000
 30
0.000000
210
0.000000
220
0.000000
230
0.016800
  2
SOLID
 70
     1
 71
     0
 91
     1
 92
     1
 93
     4
 72
     1
 10
138.482400
 20
115.416000
 11
135.290400
 21
115.416000
 72
     1
 10
135.290400
 20
115.416000
 11
135.290400
 21
103.152000
 72
     1
 10
135.290400
 20
103.152000
 11
138.482400
 21
103.152000
 72
     1
 10
138.482400
 20
103.152000
 11
138.482400
 21
115.416000
 97
     0
 75
     0
 76
     1
 98
     1
 10
0.000000
 20
0.000000
  0
POLYLINE
  8
0
  6
CONTINUOUS
 66
     1
 40
0.000000
 41
0.000000
 70
     1
  0
VERTEX
  8
0
  6
CONTINUOUS
 10
138.482400
 20
115.416000
  0
VERTEX
  8
0
  6
CONTINUOUS
 10
135.290400
 20
115.416000
  0
VERTEX
  8
0
  6
CONTINUOUS
 10
135.290400
 20
103.152000
  0
VERTEX
  8
0
  6
CONTINUOUS
 10
138.482400
 20
103.152000
  0
SEQEND
  8
0
  0
HATCH
  5
 27655
100
AcDbEntity
  8
0
 62
   254
100
AcDbHatch
 10
0.000000
 20
0.000000
 30
0.000000
210
0.000000
220
0.000000
230
0.016800
  2
SOLID
 70
     1
 71
     0
 91
     1
 92
     1
 93
     4
 72
     1
 10
135.307200
 20
115.416000
 11
132.115200
 21
115.416000
 72
     1
 10
132.115200
 20
115.416000
 11
132.115200
 21
103.152000
 72
     1
 10
132.115200
 20
103.152000
 11
135.307200
 21
103.152000
 72
     1
 10
135.307200
 20
103.152000
 11
135.307200
 21
115.416000
 97
     0
 75
     0
 76
     1
 98
     1
 10
0.000000
 20
0.000000
  0
POLYLINE
  8
0
  6
CONTINUOUS
 66
     1
 40
0.000000
 41
0.000000
 70
     1
  0
VERTEX
  8
0
  6
CONTINUOUS
 10
135.307200
 20
115.416000
  0
VERTEX
  8
0
  6
CONTINUOUS
 10
132.115200
 20
115.416000
  0
VERTEX
  8
0
  6
CONTINUOUS
 10
132.115200
 20
103.152000
  0
VERTEX
  8
0
  6
CONTINUOUS
 10
135.307200
 20
103.152000
  0
SEQEND
  8
0
  0
HATCH
  5
 27656
100
AcDbEntity
  8
0
 62
   254
100
AcDbHatch
 10
0.000000
 20
0.000000
 30
0.000000
210
0.000000
220
0.000000
230
0.016800
  2
SOLID
 70
     1
 71
     0
 91
     1
 92
     1
 93
     4
 72
     1
 10
132.132000
 20
115.416000
 11
128.940000
 21
115.416000
 72
     1
 10
128.940000
 20
115.416000
 11
128.940000
 21
103.152000
 72
     1
 10
128.940000
 20
103.152000
 11
132.132000
 21
103.152000
 72
     1
 10
132.132000
 20
103.152000
 11
132.132000
 21
115.416000
 97
     0
 75
     0
 76
     1
 98
     1
 10
0.000000
 20
0.000000
  0
POLYLINE
  8
0
  6
CONTINUOUS
 66
     1
 40
0.000000
 41
0.000000
 70
     1
  0
VERTEX
  8
0
  6
CONTINUOUS
 10
132.132000
 20
115.416000
  0
VERTEX
  8
0
  6
CONTINUOUS
 10
128.940000
 20
115.416000
  0
VERTEX
  8
0
  6
CONTINUOUS
 10
128.940000
 20
103.152000
  0
VERTEX
  8
0
  6
CONTINUOUS
 10
132.132000
 20
103.152000
  0
SEQEND
  8
0
  0
HATCH
  5
 27657
100
AcDbEntity
  8
0
 62
   254
100
AcDbHatch
 10
0.000000
 20
0.000000
 30
0.000000
210
0.000000
220
0.000000
230
0.016800
  2
SOLID
 70
     1
 71
     0
 91
     1
 92
     1
 93
     4
 72
     1
 10
128.956800
 20
115.416000
 11
125.764800
 21
115.416000
 72
     1
 10
125.764800
 20
115.416000
 11
125.764800
 21
103.152000
 72
     1
 10
125.764800
 20
103.152000
 11
128.956800
 21
103.152000
 72
     1
 10
128.956800
 20
103.152000
 11
128.956800
 21
115.416000
 97
     0
 75
     0
 76
     1
 98
     1
 10
0.000000
 20
0.000000
  0
POLYLINE
  8
0
  6
CONTINUOUS
 66
     1
 40
0.000000
 41
0.000000
 70
     1
  0
VERTEX
  8
0
  6
CONTINUOUS
 10
128.956800
 20
115.416000
  0
VERTEX
  8
0
  6
CONTINUOUS
 10
125.764800
 20
115.416000
  0
VERTEX
  8
0
  6
CONTINUOUS
 10
125.764800
 20
103.152000
  0
VERTEX
  8
0
  6
CONTINUOUS
 10
128.956800
 20
103.152000
  0
SEQEND
  8
0
  0
HATCH
  5
 27658
100
AcDbEntity
  8
0
 62
   254
100
AcDbHatch
 10
0.000000
 20
0.000000
 30
0.000000
210
0.000000
220
0.000000
230
0.016800
  2
SOLID
 70
     1
 71
     0
 91
     1
 92
     1
 93
     4
 72
     1
 10
125.764800
 20
115.416000
 11
122.572800
 21
115.416000
 72
     1
 10
122.572800
 20
115.416000
 11
122.572800
 21
103.152000
 72
     1
 10
122.572800
 20
103.152000
 11
125.764800
 21
103.152000
 72
     1
 10
125.764800
 20
103.152000
 11
125.764800
 21
115.416000
 97
     0
 75
     0
 76
     1
 98
     1
 10
0.000000
 20
0.000000
  0
POLYLINE
  8
0
  6
CONTINUOUS
 66
     1
 40
0.000000
 41
0.000000
 70
     1
  0
VERTEX
  8
0
  6
CONTINUOUS
 10
125.764800
 20
115.416000
  0
VERTEX
  8
0
  6
CONTINUOUS
 10
122.572800
 20
115.416000
  0
VERTEX
  8
0
  6
CONTINUOUS
 10
122.572800
 20
103.152000
  0
VERTEX
  8
0
  6
CONTINUOUS
 10
125.764800
 20
103.152000
  0
SEQEND
  8
0
  0
HATCH
  5
 27659
100
AcDbEntity
  8
0
 62
   254
100
AcDbHatch
 10
0.000000
 20
0.000000
 30
0.000000
210
0.000000
220
0.000000
230
0.016800
  2
SOLID
 70
     1
 71
     0
 91
     1
 92
     1
 93
     4
 72
     1
 10
122.589600
 20
115.416000
 11
119.397600
 21
115.416000
 72
     1
 10
119.397600
 20
115.416000
 11
119.397600
 21
103.152000
 72
     1
 10
119.397600
 20
103.152000
 11
122.589600
 21
103.152000
 72
     1
 10
122.589600
 20
103.152000
 11
122.589600
 21
115.416000
 97
     0
 75
     0
 76
     1
 98
     1
 10
0.000000
 20
0.000000
  0
POLYLINE
  8
0
  6
CONTINUOUS
 66
     1
 40
0.000000
 41
0.000000
 70
     1
  0
VERTEX
  8
0
  6
CONTINUOUS
 10
122.589600
 20
115.416000
  0
VERTEX
  8
0
  6
CONTINUOUS
 10
119.397600
 20
115.416000
  0
VERTEX
  8
0
  6
CONTINUOUS
 10
119.397600
 20
103.152000
  0
VERTEX
  8
0
  6
CONTINUOUS
 10
122.589600
 20
103.152000
  0
SEQEND
  8
0
  0
HATCH
  5
 27660
100
AcDbEntity
  8
0
 62
   254
100
AcDbHatch
 10
0.000000
 20
0.000000
 30
0.000000
210
0.000000
220
0.000000
230
0.016800
  2
SOLID
 70
     1
 71
     0
 91
     1
 92
     1
 93
     4
 72
     1
 10
119.414400
 20
115.416000
 11
116.222400
 21
115.416000
 72
     1
 10
116.222400
 20
115.416000
 11
116.222400
 21
103.152000
 72
     1
 10
116.222400
 20
103.152000
 11
119.414400
 21
103.152000
 72
     1
 10
119.414400
 20
103.152000
 11
119.414400
 21
115.416000
 97
     0
 75
     0
 76
     1
 98
     1
 10
0.000000
 20
0.000000
  0
POLYLINE
  8
0
  6
CONTINUOUS
 66
     1
 40
0.000000
 41
0.000000
 70
     1
  0
VERTEX
  8
0
  6
CONTINUOUS
 10
119.414400
 20
115.416000
  0
VERTEX
  8
0
  6
CONTINUOUS
 10
116.222400
 20
115.416000
  0
VERTEX
  8
0
  6
CONTINUOUS
 10
116.222400
 20
103.152000
  0
VERTEX
  8
0
  6
CONTINUOUS
 10
119.414400
 20
103.152000
  0
SEQEND
  8
0
  0
HATCH
  5
 27661
100
AcDbEntity
  8
0
 62
   254
100
AcDbHatch
 10
0.000000
 20
0.000000
 30
0.000000
210
0.000000
220
0.000000
230
0.016800
  2
SOLID
 70
     1
 71
     0
 91
     1
 92
     1
 93
     4
 72
     1
 10
116.239200
 20
115.416000
 11
113.047200
 21
115.416000
 72
     1
 10
113.047200
 20
115.416000
 11
113.047200
 21
103.152000
 72
     1
 10
113.047200
 20
103.152000
 11
116.239200
 21
103.152000
 72
     1
 10
116.239200
 20
103.152000
 11
116.239200
 21
115.416000
 97
     0
 75
     0
 76
     1
 98
     1
 10
0.000000
 20
0.000000
  0
POLYLINE
  8
0
  6
CONTINUOUS
 66
     1
 40
0.000000
 41
0.000000
 70
     1
  0
VERTEX
  8
0
  6
CONTINUOUS
 10
116.239200
 20
115.416000
  0
VERTEX
  8
0
  6
CONTINUOUS
 10
113.047200
 20
115.416000
  0
VERTEX
  8
0
  6
CONTINUOUS
 10
113.047200
 20
103.152000
  0
VERTEX
  8
0
  6
CONTINUOUS
 10
116.239200
 20
103.152000
  0
SEQEND
  8
0
  0
HATCH
  5
 27662
100
AcDbEntity
  8
0
 62
   254
100
AcDbHatch
 10
0.000000
 20
0.000000
 30
0.000000
210
0.000000
220
0.000000
230
0.016800
  2
SOLID
 70
     1
 71
     0
 91
     1
 92
     1
 93
     4
 72
     1
 10
113.064000
 20
115.416000
 11
109.872000
 21
115.416000
 72
     1
 10
109.872000
 20
115.416000
 11
109.872000
 21
103.152000
 72
     1
 10
109.872000
 20
103.152000
 11
113.064000
 21
103.152000
 72
     1
 10
113.064000
 20
103.152000
 11
113.064000
 21
115.416000
 97
     0
 75
     0
 76
     1
 98
     1
 10
0.000000
 20
0.000000
  0
POLYLINE
  8
0
  6
CONTINUOUS
 66
     1
 40
0.000000
 41
0.000000
 70
     1
  0
VERTEX
  8
0
  6
CONTINUOUS
 10
113.064000
 20
115.416000
  0
VERTEX
  8
0
  6
CONTINUOUS
 10
109.872000
 20
115.416000
  0
VERTEX
  8
0
  6
CONTINUOUS
 10
109.872000
 20
103.152000
  0
VERTEX
  8
0
  6
CONTINUOUS
 10
113.064000
 20
103.152000
  0
SEQEND
  8
0
  0
HATCH
  5
 27663
100
AcDbEntity
  8
0
 62
   254
100
AcDbHatch
 10
0.000000
 20
0.000000
 30
0.000000
210
0.000000
220
0.000000
230
0.016800
  2
SOLID
 70
     1
 71
     0
 91
     1
 92
     1
 93
     7
 72
     1
 10
162.456000
 20
103.756800
 11
162.456000
 21
116.155200
 72
     1
 10
162.456000
 20
116.155200
 11
162.036000
 21
116.155200
 72
     1
 10
162.036000
 20
116.155200
 11
162.036000
 21
103.756800
 72
     1
 10
162.036000
 20
103.756800
 11
109.401600
 21
103.756800
 72
     1
 10
109.401600
 20
103.756800
 11
109.401600
 21
103.152000
 72
     1
 10
109.401600
 20
103.152000
 11
162.456000
 21
103.152000
 72
     1
 10
162.456000
 20
103.152000
 11
162.456000
 21
103.756800
 97
     0
 75
     0
 76
     1
 98
     1
 10
0.000000
 20
0.000000
  0
POLYLINE
  8
0
  6
CONTINUOUS
 66
     1
 40
0.000000
 41
0.000000
 70
     1
  0
VERTEX
  8
0
  6
CONTINUOUS
 10
162.456000
 20
103.756800
  0
VERTEX
  8
0
  6
CONTINUOUS
 10
162.456000
 20
116.155200
  0
VERTEX
  8
0
  6
CONTINUOUS
 10
162.036000
 20
116.155200
  0
VERTEX
  8
0
  6
CONTINUOUS
 10
162.036000
 20
103.756800
  0
VERTEX
  8
0
  6
CONTINUOUS
 10
109.401600
 20
103.756800
  0
VERTEX
  8
0
  6
CONTINUOUS
 10
109.401600
 20
103.152000
  0
VERTEX
  8
0
  6
CONTINUOUS
 10
162.456000
 20
103.152000
  0
SEQEND
  8
0
  0
HATCH
  5
 27664
100
AcDbEntity
  8
0
 62
   254
100
AcDbHatch
 10
0.000000
 20
0.000000
 30
0.000000
210
0.000000
220
0.000000
230
0.016800
  2
SOLID
 70
     1
 71
     0
 91
     1
 92
     1
 93
     4
 72
     1
 10
151.972800
 20
114.945600
 11
150.998400
 21
114.945600
 72
     1
 10
150.998400
 20
114.945600
 11
150.998400
 21
114.004800
 72
     1
 10
150.998400
 20
114.004800
 11
151.972800
 21
114.004800
 72
     1
 10
151.972800
 20
114.004800
 11
151.972800
 21
114.945600
 97
     0
 75
     0
 76
     1
 98
     1
 10
0.000000
 20
0.000000
  0
POLYLINE
  8
0
  6
CONTINUOUS
 66
     1
 40
0.000000
 41
0.000000
 70
     1
  0
VERTEX
  8
0
  6
CONTINUOUS
 10
151.972800
 20
114.945600
  0
VERTEX
  8
0
  6
CONTINUOUS
 10
150.998400
 20
114.945600
  0
VERTEX
  8
0
  6
CONTINUOUS
 10
150.998400
 20
114.004800
  0
VERTEX
  8
0
  6
CONTINUOUS
 10
151.972800
 20
114.004800
  0
SEQEND
  8
0
  0
POLYLINE
  8
0
 62
   176
  6
HIDDEN
 66
     1
 40
0.100800
 41
0.100800
 70
     1
  0
VERTEX
  8
0
 62
   176
  6
HIDDEN
 10
58.413600
 20
150.057600
  0
VERTEX
  8
0
 62
   176
  6
HIDDEN
 10
58.413600
 20
43.982400
  0
VERTEX
  8
0
 62
   176
  6
HIDDEN
 10
84.571200
 20
43.982400
  0
VERTEX
  8
0
 62
   176
  6
HIDDEN
 10
84.571200
 20
67.720800
  0
VERTEX
  8
0
 62
   176
  6
HIDDEN
 10
100.800000
 20
67.720800
  0
VERTEX
  8
0
 62
   176
  6
HIDDEN
 10
100.800000
 20
85.646400
  0
VERTEX
  8
0
 62
   176
  6
HIDDEN
 10
135.492000
 20
85.646400
  0
VERTEX
  8
0
 62
   176
  6
HIDDEN
 10
135.492000
 20
103.185600
  0
VERTEX
  8
0
 62
   176
  6
HIDDEN
 10
143.035200
 20
103.185600
  0
VERTEX
  8
0
 62
   176
  6
HIDDEN
 10
143.035200
 20
115.063200
  0
VERTEX
  8
0
 62
   176
  6
HIDDEN
 10
139.843200
 20
115.063200
  0
VERTEX
  8
0
 62
   176
  6
HIDDEN
 10
139.843200
 20
150.057600
  0
SEQEND
  8
0
  0
POLYLINE
  8
0
 62
   176
  6
CONTINUOUS
 66
     1
 40
0.100800
 41
0.100800
 70
     1
  0
VERTEX
  8
0
 62
   176
  6
CONTINUOUS
 10
58.413600
 20
150.057600
  0
VERTEX
  8
0
 62
   176
  6
CONTINUOUS
 10
58.413600
 20
43.982400
  0
VERTEX
  8
0
 62
   176
  6
CONTINUOUS
 10
84.571200
 20
43.982400
  0
VERTEX
  8
0
 62
   176
  6
CONTINUOUS
 10
84.571200
 20
67.720800
  0
VERTEX
  8
0
 62
   176
  6
CONTINUOUS
 10
100.800000
 20
67.720800
  0
VERTEX
  8
0
 62
   176
  6
CONTINUOUS
 10
100.800000
 20
85.646400
  0
VERTEX
  8
0
 62
   176
  6
CONTINUOUS
 10
135.492000
 20
85.646400
  0
VERTEX
  8
0
 62
   176
  6
CONTINUOUS
 10
135.492000
 20
103.185600
  0
VERTEX
  8
0
 62
   176
  6
CONTINUOUS
 10
143.035200
 20
103.185600
  0
VERTEX
  8
0
 62
   176
  6
CONTINUOUS
 10
143.035200
 20
115.063200
  0
VERTEX
  8
0
 62
   176
  6
CONTINUOUS
 10
139.843200
 20
115.063200
  0
VERTEX
  8
0
 62
   176
  6
CONTINUOUS
 10
139.843200
 20
150.057600
  0
VERTEX
  8
0
 62
   176
  6
CONTINUOUS
 10
131.258400
 20
150.057600
  0
VERTEX
  8
0
 62
   176
  6
CONTINUOUS
 10
131.258400
 20
153.148800
  0
VERTEX
  8
0
 62
   176
  6
CONTINUOUS
 10
103.084800
 20
153.148800
  0
VERTEX
  8
0
 62
   176
  6
CONTINUOUS
 10
103.084800
 20
150.057600
  0
SEQEND
  8
0
  0
HATCH
  5
 27665
100
AcDbEntity
  8
0
 62
   254
100
AcDbHatch
 10
0.000000
 20
0.000000
 30
0.000000
210
0.000000
220
0.000000
230
0.016800
  2
SOLID
 70
     1
 71
     0
 91
     1
 92
     1
 93
     4
 72
     1
 10
365.601600
 20
115.012800
 11
376.152000
 21
115.012800
 72
     1
 10
376.152000
 20
115.012800
 11
376.152000
 21
108.208800
 72
     1
 10
376.152000
 20
108.208800
 11
365.601600
 21
114.676800
 72
     1
 10
365.601600
 20
114.676800
 11
365.601600
 21
115.012800
 97
     0
 75
     0
 76
     1
 98
     1
 10
0.000000
 20
0.000000
  0
POLYLINE
  8
0
  6
CONTINUOUS
 66
     1
 40
0.000000
 41
0.000000
 70
     1
  0
VERTEX
  8
0
  6
CONTINUOUS
 10
365.601600
 20
115.012800
  0
VERTEX
  8
0
  6
CONTINUOUS
 10
376.152000
 20
115.012800
  0
VERTEX
  8
0
  6
CONTINUOUS
 10
376.152000
 20
108.208800
  0
VERTEX
  8
0
  6
CONTINUOUS
 10
365.601600
 20
114.676800
  0
SEQEND
  8
0
  0
HATCH
  5
 27666
100
AcDbEntity
  8
0
 62
   254
100
AcDbHatch
 10
0.000000
 20
0.000000
 30
0.000000
210
0.000000
220
0.000000
230
0.016800
  2
SOLID
 70
     1
 71
     0
 91
     1
 92
     1
 93
     5
 72
     1
 10
365.601600
 20
114.811200
 11
376.152000
 21
108.410400
 72
     1
 10
376.152000
 20
108.410400
 11
376.152000
 21
103.420800
 72
     1
 10
376.152000
 20
103.420800
 11
370.876800
 21
103.420800
 72
     1
 10
370.876800
 20
103.420800
 11
365.181600
 21
114.273600
 72
     1
 10
365.181600
 20
114.273600
 11
365.601600
 21
114.811200
 97
     0
 75
     0
 76
     1
 98
     1
 10
0.000000
 20
0.000000
  0
POLYLINE
  8
0
  6
CONTINUOUS
 66
     1
 40
0.000000
 41
0.000000
 70
     1
  0
VERTEX
  8
0
  6
CONTINUOUS
 10
365.601600
 20
114.811200
  0
VERTEX
  8
0
  6
CONTINUOUS
 10
376.152000
 20
108.410400
  0
VERTEX
  8
0
  6
CONTINUOUS
 10
376.152000
 20
103.420800
  0
VERTEX
  8
0
  6
CONTINUOUS
 10
370.876800
 20
103.420800
  0
VERTEX
  8
0
  6
CONTINUOUS
 10
365.181600
 20
114.273600
  0
SEQEND
  8
0
  0
HATCH
  5
 27667
100
AcDbEntity
  8
0
 62
   254
100
AcDbHatch
 10
0.000000
 20
0.000000
 30
0.000000
210
0.000000
220
0.000000
230
0.016800
  2
SOLID
 70
     1
 71
     0
 91
     1
 92
     1
 93
     4
 72
     1
 10
364.845600
 20
114.340800
 11
364.845600
 21
103.420800
 72
     1
 10
364.845600
 20
103.420800
 11
371.028000
 21
103.420800
 72
     1
 10
371.028000
 20
103.420800
 11
365.265600
 21
114.340800
 72
     1
 10
365.265600
 20
114.340800
 11
364.845600
 21
114.340800
 97
     0
 75
     0
 76
     1
 98
     1
 10
0.000000
 20
0.000000
  0
POLYLINE
  8
0
  6
CONTINUOUS
 66
     1
 40
0.000000
 41
0.000000
 70
     1
  0
VERTEX
  8
0
  6
CONTINUOUS
 10
364.845600
 20
114.340800
  0
VERTEX
  8
0
  6
CONTINUOUS
 10
364.845600
 20
103.420800
  0
VERTEX
  8
0
  6
CONTINUOUS
 10
371.028000
 20
103.420800
  0
VERTEX
  8
0
  6
CONTINUOUS
 10
365.265600
 20
114.340800
  0
SEQEND
  8
0
  0
HATCH
  5
 27668
100
AcDbEntity
  8
0
 62
   254
100
AcDbHatch
 10
0.000000
 20
0.000000
 30
0.000000
210
0.000000
220
0.000000
230
0.016800
  2
SOLID
 70
     1
 71
     0
 91
     1
 92
     1
 93
     4
 72
     1
 10
364.912800
 20
115.684800
 11
361.720800
 21
115.684800
 72
     1
 10
361.720800
 20
115.684800
 11
361.720800
 21
103.420800
 72
     1
 10
361.720800
 20
103.420800
 11
364.912800
 21
103.420800
 72
     1
 10
364.912800
 20
103.420800
 11
364.912800
 21
115.684800
 97
     0
 75
     0
 76
     1
 98
     1
 10
0.000000
 20
0.000000
  0
POLYLINE
  8
0
  6
CONTINUOUS
 66
     1
 40
0.000000
 41
0.000000
 70
     1
  0
VERTEX
  8
0
  6
CONTINUOUS
 10
364.912800
 20
115.684800
  0
VERTEX
  8
0
  6
CONTINUOUS
 10
361.720800
 20
115.684800
  0
VERTEX
  8
0
  6
CONTINUOUS
 10
361.720800
 20
103.420800
  0
VERTEX
  8
0
  6
CONTINUOUS
 10
364.912800
 20
103.420800
  0
SEQEND
  8
0
  0
HATCH
  5
 27669
100
AcDbEntity
  8
0
 62
   254
100
AcDbHatch
 10
0.000000
 20
0.000000
 30
0.000000
210
0.000000
220
0.000000
230
0.016800
  2
SOLID
 70
     1
 71
     0
 91
     1
 92
     1
 93
     4
 72
     1
 10
361.737600
 20
115.684800
 11
358.545600
 21
115.684800
 72
     1
 10
358.545600
 20
115.684800
 11
358.545600
 21
103.420800
 72
     1
 10
358.545600
 20
103.420800
 11
361.737600
 21
103.420800
 72
     1
 10
361.737600
 20
103.420800
 11
361.737600
 21
115.684800
 97
     0
 75
     0
 76
     1
 98
     1
 10
0.000000
 20
0.000000
  0
POLYLINE
  8
0
  6
CONTINUOUS
 66
     1
 40
0.000000
 41
0.000000
 70
     1
  0
VERTEX
  8
0
  6
CONTINUOUS
 10
361.737600
 20
115.684800
  0
VERTEX
  8
0
  6
CONTINUOUS
 10
358.545600
 20
115.684800
  0
VERTEX
  8
0
  6
CONTINUOUS
 10
358.545600
 20
103.420800
  0
VERTEX
  8
0
  6
CONTINUOUS
 10
361.737600
 20
103.420800
  0
SEQEND
  8
0
  0
HATCH
  5
 27670
100
AcDbEntity
  8
0
 62
   254
100
AcDbHatch
 10
0.000000
 20
0.000000
 30
0.000000
210
0.000000
220
0.000000
230
0.016800
  2
SOLID
 70
     1
 71
     0
 91
     1
 92
     1
 93
     4
 72
     1
 10
358.562400
 20
115.684800
 11
355.353600
 21
115.684800
 72
     1
 10
355.353600
 20
115.684800
 11
355.353600
 21
103.420800
 72
     1
 10
355.353600
 20
103.420800
 11
358.562400
 21
103.420800
 72
     1
 10
358.562400
 20
103.420800
 11
358.562400
 21
115.684800
 97
     0
 75
     0
 76
     1
 98
     1
 10
0.000000
 20
0.000000
  0
POLYLINE
  8
0
  6
CONTINUOUS
 66
     1
 40
0.000000
 41
0.000000
 70
     1
  0
VERTEX
  8
0
  6
CONTINUOUS
 10
358.562400
 20
115.684800
  0
VERTEX
  8
0
  6
CONTINUOUS
 10
355.353600
 20
115.684800
  0
VERTEX
  8
0
  6
CONTINUOUS
 10
355.353600
 20
103.420800
  0
VERTEX
  8
0
  6
CONTINUOUS
 10
358.562400
 20
103.420800
  0
SEQEND
  8
0
  0
HATCH
  5
 27671
100
AcDbEntity
  8
0
 62
   254
100
AcDbHatch
 10
0.000000
 20
0.000000
 30
0.000000
210
0.000000
220
0.000000
230
0.016800
  2
SOLID
 70
     1
 71
     0
 91
     1
 92
     1
 93
     4
 72
     1
 10
355.370400
 20
115.684800
 11
352.178400
 21
115.684800
 72
     1
 10
352.178400
 20
115.684800
 11
352.178400
 21
103.420800
 72
     1
 10
352.178400
 20
103.420800
 11
355.370400
 21
103.420800
 72
     1
 10
355.370400
 20
103.420800
 11
355.370400
 21
115.684800
 97
     0
 75
     0
 76
     1
 98
     1
 10
0.000000
 20
0.000000
  0
POLYLINE
  8
0
  6
CONTINUOUS
 66
     1
 40
0.000000
 41
0.000000
 70
     1
  0
VERTEX
  8
0
  6
CONTINUOUS
 10
355.370400
 20
115.684800
  0
VERTEX
  8
0
  6
CONTINUOUS
 10
352.178400
 20
115.684800
  0
VERTEX
  8
0
  6
CONTINUOUS
 10
352.178400
 20
103.420800
  0
VERTEX
  8
0
  6
CONTINUOUS
 10
355.370400
 20
103.420800
  0
SEQEND
  8
0
  0
HATCH
  5
 27672
100
AcDbEntity
  8
0
 62
   254
100
AcDbHatch
 10
0.000000
 20
0.000000
 30
0.000000
210
0.000000
220
0.000000
230
0.016800
  2
SOLID
 70
     1
 71
     0
 91
     1
 92
     1
 93
     4
 72
     1
 10
352.195200
 20
115.684800
 11
349.003200
 21
115.684800
 72
     1
 10
349.003200
 20
115.684800
 11
349.003200
 21
103.420800
 72
     1
 10
349.003200
 20
103.420800
 11
352.195200
 21
103.420800
 72
     1
 10
352.195200
 20
103.420800
 11
352.195200
 21
115.684800
 97
     0
 75
     0
 76
     1
 98
     1
 10
0.000000
 20
0.000000
  0
POLYLINE
  8
0
  6
CONTINUOUS
 66
     1
 40
0.000000
 41
0.000000
 70
     1
  0
VERTEX
  8
0
  6
CONTINUOUS
 10
352.195200
 20
115.684800
  0
VERTEX
  8
0
  6
CONTINUOUS
 10
349.003200
 20
115.684800
  0
VERTEX
  8
0
  6
CONTINUOUS
 10
349.003200
 20
103.420800
  0
VERTEX
  8
0
  6
CONTINUOUS
 10
352.195200
 20
103.420800
  0
SEQEND
  8
0
  0
HATCH
  5
 27673
100
AcDbEntity
  8
0
 62
   254
100
AcDbHatch
 10
0.000000
 20
0.000000
 30
0.000000
210
0.000000
220
0.000000
230
0.016800
  2
SOLID
 70
     1
 71
     0
 91
     1
 92
     1
 93
     4
 72
     1
 10
349.020000
 20
115.684800
 11
345.828000
 21
115.684800
 72
     1
 10
345.828000
 20
115.684800
 11
345.828000
 21
103.420800
 72
     1
 10
345.828000
 20
103.420800
 11
349.020000
 21
103.420800
 72
     1
 10
349.020000
 20
103.420800
 11
349.020000
 21
115.684800
 97
     0
 75
     0
 76
     1
 98
     1
 10
0.000000
 20
0.000000
  0
POLYLINE
  8
0
  6
CONTINUOUS
 66
     1
 40
0.000000
 41
0.000000
 70
     1
  0
VERTEX
  8
0
  6
CONTINUOUS
 10
349.020000
 20
115.684800
  0
VERTEX
  8
0
  6
CONTINUOUS
 10
345.828000
 20
115.684800
  0
VERTEX
  8
0
  6
CONTINUOUS
 10
345.828000
 20
103.420800
  0
VERTEX
  8
0
  6
CONTINUOUS
 10
349.020000
 20
103.420800
  0
SEQEND
  8
0
  0
HATCH
  5
 27674
100
AcDbEntity
  8
0
 62
   254
100
AcDbHatch
 10
0.000000
 20
0.000000
 30
0.000000
210
0.000000
220
0.000000
230
0.016800
  2
SOLID
 70
     1
 71
     0
 91
     1
 92
     1
 93
     4
 72
     1
 10
345.844800
 20
115.684800
 11
342.652800
 21
115.684800
 72
     1
 10
342.652800
 20
115.684800
 11
342.652800
 21
103.420800
 72
     1
 10
342.652800
 20
103.420800
 11
345.844800
 21
103.420800
 72
     1
 10
345.844800
 20
103.420800
 11
345.844800
 21
115.684800
 97
     0
 75
     0
 76
     1
 98
     1
 10
0.000000
 20
0.000000
  0
POLYLINE
  8
0
  6
CONTINUOUS
 66
     1
 40
0.000000
 41
0.000000
 70
     1
  0
VERTEX
  8
0
  6
CONTINUOUS
 10
345.844800
 20
115.684800
  0
VERTEX
  8
0
  6
CONTINUOUS
 10
342.652800
 20
115.684800
  0
VERTEX
  8
0
  6
CONTINUOUS
 10
342.652800
 20
103.420800
  0
VERTEX
  8
0
  6
CONTINUOUS
 10
345.844800
 20
103.420800
  0
SEQEND
  8
0
  0
HATCH
  5
 27675
100
AcDbEntity
  8
0
 62
   254
100
AcDbHatch
 10
0.000000
 20
0.000000
 30
0.000000
210
0.000000
220
0.000000
230
0.016800
  2
SOLID
 70
     1
 71
     0
 91
     1
 92
     1
 93
     4
 72
     1
 10
342.652800
 20
115.684800
 11
339.460800
 21
115.684800
 72
     1
 10
339.460800
 20
115.684800
 11
339.460800
 21
103.420800
 72
     1
 10
339.460800
 20
103.420800
 11
342.652800
 21
103.420800
 72
     1
 10
342.652800
 20
103.420800
 11
342.652800
 21
115.684800
 97
     0
 75
     0
 76
     1
 98
     1
 10
0.000000
 20
0.000000
  0
POLYLINE
  8
0
  6
CONTINUOUS
 66
     1
 40
0.000000
 41
0.000000
 70
     1
  0
VERTEX
  8
0
  6
CONTINUOUS
 10
342.652800
 20
115.684800
  0
VERTEX
  8
0
  6
CONTINUOUS
 10
339.460800
 20
115.684800
  0
VERTEX
  8
0
  6
CONTINUOUS
 10
339.460800
 20
103.420800
  0
VERTEX
  8
0
  6
CONTINUOUS
 10
342.652800
 20
103.420800
  0
SEQEND
  8
0
  0
HATCH
  5
 27676
100
AcDbEntity
  8
0
 62
   254
100
AcDbHatch
 10
0.000000
 20
0.000000
 30
0.000000
210
0.000000
220
0.000000
230
0.016800
  2
SOLID
 70
     1
 71
     0
 91
     1
 92
     1
 93
     4
 72
     1
 10
339.477600
 20
115.684800
 11
336.285600
 21
115.684800
 72
     1
 10
336.285600
 20
115.684800
 11
336.285600
 21
103.420800
 72
     1
 10
336.285600
 20
103.420800
 11
339.477600
 21
103.420800
 72
     1
 10
339.477600
 20
103.420800
 11
339.477600
 21
115.684800
 97
     0
 75
     0
 76
     1
 98
     1
 10
0.000000
 20
0.000000
  0
POLYLINE
  8
0
  6
CONTINUOUS
 66
     1
 40
0.000000
 41
0.000000
 70
     1
  0
VERTEX
  8
0
  6
CONTINUOUS
 10
339.477600
 20
115.684800
  0
VERTEX
  8
0
  6
CONTINUOUS
 10
336.285600
 20
115.684800
  0
VERTEX
  8
0
  6
CONTINUOUS
 10
336.285600
 20
103.420800
  0
VERTEX
  8
0
  6
CONTINUOUS
 10
339.477600
 20
103.420800
  0
SEQEND
  8
0
  0
HATCH
  5
 27677
100
AcDbEntity
  8
0
 62
   254
100
AcDbHatch
 10
0.000000
 20
0.000000
 30
0.000000
210
0.000000
220
0.000000
230
0.016800
  2
SOLID
 70
     1
 71
     0
 91
     1
 92
     1
 93
     4
 72
     1
 10
336.302400
 20
115.684800
 11
333.110400
 21
115.684800
 72
     1
 10
333.110400
 20
115.684800
 11
333.110400
 21
103.420800
 72
     1
 10
333.110400
 20
103.420800
 11
336.302400
 21
103.420800
 72
     1
 10
336.302400
 20
103.420800
 11
336.302400
 21
115.684800
 97
     0
 75
     0
 76
     1
 98
     1
 10
0.000000
 20
0.000000
  0
POLYLINE
  8
0
  6
CONTINUOUS
 66
     1
 40
0.000000
 41
0.000000
 70
     1
  0
VERTEX
  8
0
  6
CONTINUOUS
 10
336.302400
 20
115.684800
  0
VERTEX
  8
0
  6
CONTINUOUS
 10
333.110400
 20
115.684800
  0
VERTEX
  8
0
  6
CONTINUOUS
 10
333.110400
 20
103.420800
  0
VERTEX
  8
0
  6
CONTINUOUS
 10
336.302400
 20
103.420800
  0
SEQEND
  8
0
  0
HATCH
  5
 27678
100
AcDbEntity
  8
0
 62
   254
100
AcDbHatch
 10
0.000000
 20
0.000000
 30
0.000000
210
0.000000
220
0.000000
230
0.016800
  2
SOLID
 70
     1
 71
     0
 91
     1
 92
     1
 93
     4
 72
     1
 10
333.127200
 20
115.684800
 11
329.935200
 21
115.684800
 72
     1
 10
329.935200
 20
115.684800
 11
329.935200
 21
103.420800
 72
     1
 10
329.935200
 20
103.420800
 11
333.127200
 21
103.420800
 72
     1
 10
333.127200
 20
103.420800
 11
333.127200
 21
115.684800
 97
     0
 75
     0
 76
     1
 98
     1
 10
0.000000
 20
0.000000
  0
POLYLINE
  8
0
  6
CONTINUOUS
 66
     1
 40
0.000000
 41
0.000000
 70
     1
  0
VERTEX
  8
0
  6
CONTINUOUS
 10
333.127200
 20
115.684800
  0
VERTEX
  8
0
  6
CONTINUOUS
 10
329.935200
 20
115.684800
  0
VERTEX
  8
0
  6
CONTINUOUS
 10
329.935200
 20
103.420800
  0
VERTEX
  8
0
  6
CONTINUOUS
 10
333.127200
 20
103.420800
  0
SEQEND
  8
0
  0
HATCH
  5
 27679
100
AcDbEntity
  8
0
 62
   254
100
AcDbHatch
 10
0.000000
 20
0.000000
 30
0.000000
210
0.000000
220
0.000000
230
0.016800
  2
SOLID
 70
     1
 71
     0
 91
     1
 92
     1
 93
     4
 72
     1
 10
329.952000
 20
115.684800
 11
326.743200
 21
115.684800
 72
     1
 10
326.743200
 20
115.684800
 11
326.743200
 21
103.420800
 72
     1
 10
326.743200
 20
103.420800
 11
329.952000
 21
103.420800
 72
     1
 10
329.952000
 20
103.420800
 11
329.952000
 21
115.684800
 97
     0
 75
     0
 76
     1
 98
     1
 10
0.000000
 20
0.000000
  0
POLYLINE
  8
0
  6
CONTINUOUS
 66
     1
 40
0.000000
 41
0.000000
 70
     1
  0
VERTEX
  8
0
  6
CONTINUOUS
 10
329.952000
 20
115.684800
  0
VERTEX
  8
0
  6
CONTINUOUS
 10
326.743200
 20
115.684800
  0
VERTEX
  8
0
  6
CONTINUOUS
 10
326.743200
 20
103.420800
  0
VERTEX
  8
0
  6
CONTINUOUS
 10
329.952000
 20
103.420800
  0
SEQEND
  8
0
  0
HATCH
  5
 27680
100
AcDbEntity
  8
0
 62
   254
100
AcDbHatch
 10
0.000000
 20
0.000000
 30
0.000000
210
0.000000
220
0.000000
230
0.016800
  2
SOLID
 70
     1
 71
     0
 91
     1
 92
     1
 93
     4
 72
     1
 10
326.760000
 20
115.684800
 11
323.568000
 21
115.684800
 72
     1
 10
323.568000
 20
115.684800
 11
323.568000
 21
103.420800
 72
     1
 10
323.568000
 20
103.420800
 11
326.760000
 21
103.420800
 72
     1
 10
326.760000
 20
103.420800
 11
326.760000
 21
115.684800
 97
     0
 75
     0
 76
     1
 98
     1
 10
0.000000
 20
0.000000
  0
POLYLINE
  8
0
  6
CONTINUOUS
 66
     1
 40
0.000000
 41
0.000000
 70
     1
  0
VERTEX
  8
0
  6
CONTINUOUS
 10
326.760000
 20
115.684800
  0
VERTEX
  8
0
  6
CONTINUOUS
 10
323.568000
 20
115.684800
  0
VERTEX
  8
0
  6
CONTINUOUS
 10
323.568000
 20
103.420800
  0
VERTEX
  8
0
  6
CONTINUOUS
 10
326.760000
 20
103.420800
  0
SEQEND
  8
0
  0
HATCH
  5
 27681
100
AcDbEntity
  8
0
 62
   254
100
AcDbHatch
 10
0.000000
 20
0.000000
 30
0.000000
210
0.000000
220
0.000000
230
0.016800
  2
SOLID
 70
     1
 71
     0
 91
     1
 92
     1
 93
     7
 72
     1
 10
376.152000
 20
104.025600
 11
376.152000
 21
116.424000
 72
     1
 10
376.152000
 20
116.424000
 11
375.732000
 21
116.424000
 72
     1
 10
375.732000
 20
116.424000
 11
375.732000
 21
104.025600
 72
     1
 10
375.732000
 20
104.025600
 11
323.114400
 21
104.025600
 72
     1
 10
323.114400
 20
104.025600
 11
323.114400
 21
103.420800
 72
     1
 10
323.114400
 20
103.420800
 11
376.152000
 21
103.420800
 72
     1
 10
376.152000
 20
103.420800
 11
376.152000
 21
104.025600
 97
     0
 75
     0
 76
     1
 98
     1
 10
0.000000
 20
0.000000
  0
POLYLINE
  8
0
  6
CONTINUOUS
 66
     1
 40
0.000000
 41
0.000000
 70
     1
  0
VERTEX
  8
0
  6
CONTINUOUS
 10
376.152000
 20
104.025600
  0
VERTEX
  8
0
  6
CONTINUOUS
 10
376.152000
 20
116.424000
  0
VERTEX
  8
0
  6
CONTINUOUS
 10
375.732000
 20
116.424000
  0
VERTEX
  8
0
  6
CONTINUOUS
 10
375.732000
 20
104.025600
  0
VERTEX
  8
0
  6
CONTINUOUS
 10
323.114400
 20
104.025600
  0
VERTEX
  8
0
  6
CONTINUOUS
 10
323.114400
 20
103.420800
  0
VERTEX
  8
0
  6
CONTINUOUS
 10
376.152000
 20
103.420800
  0
SEQEND
  8
0
  0
HATCH
  5
 27682
100
AcDbEntity
  8
0
 62
   254
100
AcDbHatch
 10
0.000000
 20
0.000000
 30
0.000000
210
0.000000
220
0.000000
230
0.016800
  2
SOLID
 70
     1
 71
     0
 91
     1
 92
     1
 93
     4
 72
     1
 10
365.668800
 20
115.214400
 11
364.711200
 21
115.214400
 72
     1
 10
364.711200
 20
115.214400
 11
364.711200
 21
114.273600
 72
     1
 10
364.711200
 20
114.273600
 11
365.668800
 21
114.273600
 72
     1
 10
365.668800
 20
114.273600
 11
365.668800
 21
115.214400
 97
     0
 75
     0
 76
     1
 98
     1
 10
0.000000
 20
0.000000
  0
POLYLINE
  8
0
  6
CONTINUOUS
 66
     1
 40
0.000000
 41
0.000000
 70
     1
  0
VERTEX
  8
0
  6
CONTINUOUS
 10
365.668800
 20
115.214400
  0
VERTEX
  8
0
  6
CONTINUOUS
 10
364.711200
 20
115.214400
  0
VERTEX
  8
0
  6
CONTINUOUS
 10
364.711200
 20
114.273600
  0
VERTEX
  8
0
  6
CONTINUOUS
 10
365.668800
 20
114.273600
  0
SEQEND
  8
0
  0
POLYLINE
  8
0
 62
   176
  6
HIDDEN
 66
     1
 40
0.100800
 41
0.100800
 70
     1
  0
VERTEX
  8
0
 62
   176
  6
HIDDEN
 10
272.126400
 20
150.326400
  0
VERTEX
  8
0
 62
   176
  6
HIDDEN
 10
272.126400
 20
44.251200
  0
VERTEX
  8
0
 62
   176
  6
HIDDEN
 10
298.284000
 20
44.251200
  0
VERTEX
  8
0
 62
   176
  6
HIDDEN
 10
298.284000
 20
67.989600
  0
VERTEX
  8
0
 62
   176
  6
HIDDEN
 10
314.496000
 20
67.989600
  0
VERTEX
  8
0
 62
   176
  6
HIDDEN
 10
314.496000
 20
85.915200
  0
VERTEX
  8
0
 62
   176
  6
HIDDEN
 10
349.204800
 20
85.915200
  0
VERTEX
  8
0
 62
   176
  6
HIDDEN
 10
349.204800
 20
103.454400
  0
VERTEX
  8
0
 62
   176
  6
HIDDEN
 10
356.748000
 20
103.454400
  0
VERTEX
  8
0
 62
   176
  6
HIDDEN
 10
356.748000
 20
115.332000
  0
VERTEX
  8
0
 62
   176
  6
HIDDEN
 10
353.539200
 20
115.332000
  0
VERTEX
  8
0
 62
   176
  6
HIDDEN
 10
353.539200
 20
150.326400
  0
SEQEND
  8
0
  0
POLYLINE
  8
0
 62
   176
  6
CONTINUOUS
 66
     1
 40
0.100800
 41
0.100800
 70
     1
  0
VERTEX
  8
0
 62
   176
  6
CONTINUOUS
 10
272.126400
 20
150.326400
  0
VERTEX
  8
0
 62
   176
  6
CONTINUOUS
 10
272.126400
 20
44.251200
  0
VERTEX
  8
0
 62
   176
  6
CONTINUOUS
 10
298.284000
 20
44.251200
  0
VERTEX
  8
0
 62
   176
  6
CONTINUOUS
 10
298.284000
 20
67.989600
  0
VERTEX
  8
0
 62
   176
  6
CONTINUOUS
 10
314.496000
 20
67.989600
  0
VERTEX
  8
0
 62
   176
  6
CONTINUOUS
 10
314.496000
 20
85.915200
  0
VERTEX
  8
0
 62
   176
  6
CONTINUOUS
 10
349.204800
 20
85.915200
  0
VERTEX
  8
0
 62
   176
  6
CONTINUOUS
 10
349.204800
 20
103.454400
  0
VERTEX
  8
0
 62
   176
  6
CONTINUOUS
 10
356.748000
 20
103.454400
  0
VERTEX
  8
0
 62
   176
  6
CONTINUOUS
 10
356.748000
 20
115.332000
  0
VERTEX
  8
0
 62
   176
  6
CONTINUOUS
 10
353.539200
 20
115.332000
  0
VERTEX
  8
0
 62
   176
  6
CONTINUOUS
 10
353.539200
 20
150.326400
  0
VERTEX
  8
0
 62
   176
  6
CONTINUOUS
 10
344.971200
 20
150.326400
  0
VERTEX
  8
0
 62
   176
  6
CONTINUOUS
 10
344.971200
 20
153.417600
  0
VERTEX
  8
0
 62
   176
  6
CONTINUOUS
 10
316.780800
 20
153.417600
  0
VERTEX
  8
0
 62
   176
  6
CONTINUOUS
 10
316.780800
 20
150.326400
  0
SEQEND
  8
0
  0
HATCH
  5
 27683
100
AcDbEntity
  8
0
 62
    36
100
AcDbHatch
 10
0.000000
 20
0.000000
 30
0.000000
210
0.000000
220
0.000000
230
0.016800
  2
SOLID
 70
     1
 71
     0
 91
     1
 92
     1
 93
     4
 72
     1
 10
322.224000
 20
116.575200
 11
312.043200
 21
116.575200
 72
     1
 10
312.043200
 20
116.575200
 11
312.043200
 21
116.037600
 72
     1
 10
312.043200
 20
116.037600
 11
322.224000
 21
116.037600
 72
     1
 10
322.224000
 20
116.037600
 11
322.224000
 21
116.575200
 97
     0
 75
     0
 76
     1
 98
     1
 10
0.000000
 20
0.000000
  0
POLYLINE
  8
0
  6
CONTINUOUS
 66
     1
 40
0.000000
 41
0.000000
 70
     1
  0
VERTEX
  8
0
  6
CONTINUOUS
 10
322.224000
 20
116.575200
  0
VERTEX
  8
0
  6
CONTINUOUS
 10
312.043200
 20
116.575200
  0
VERTEX
  8
0
  6
CONTINUOUS
 10
312.043200
 20
116.037600
  0
VERTEX
  8
0
  6
CONTINUOUS
 10
322.224000
 20
116.037600
  0
SEQEND
  8
0
  0
HATCH
  5
 27684
100
AcDbEntity
  8
0
 62
    36
100
AcDbHatch
 10
0.000000
 20
0.000000
 30
0.000000
210
0.000000
220
0.000000
230
0.016800
  2
SOLID
 70
     1
 71
     0
 91
     1
 92
     1
 93
     4
 72
     1
 10
323.685600
 20
98.548800
 11
323.282400
 21
98.548800
 72
     1
 10
323.282400
 20
98.548800
 11
323.282400
 21
88.368000
 72
     1
 10
323.282400
 20
88.368000
 11
323.685600
 21
88.368000
 72
     1
 10
323.685600
 20
88.368000
 11
323.685600
 21
98.548800
 97
     0
 75
     0
 76
     1
 98
     1
 10
0.000000
 20
0.000000
  0
POLYLINE
  8
0
  6
CONTINUOUS
 66
     1
 40
0.000000
 41
0.000000
 70
     1
  0
VERTEX
  8
0
  6
CONTINUOUS
 10
323.685600
 20
98.548800
  0
VERTEX
  8
0
  6
CONTINUOUS
 10
323.282400
 20
98.548800
  0
VERTEX
  8
0
  6
CONTINUOUS
 10
323.282400
 20
88.368000
  0
VERTEX
  8
0
  6
CONTINUOUS
 10
323.685600
 20
88.368000
  0
SEQEND
  8
0
  0
HATCH
  5
 27685
100
AcDbEntity
  8
0
 62
    36
100
AcDbHatch
 10
0.000000
 20
0.000000
 30
0.000000
210
0.000000
220
0.000000
230
0.016800
  2
SOLID
 70
     1
 71
     0
 91
     1
 92
     1
 93
     4
 72
     1
 10
302.198400
 20
81.984000
 11
301.795200
 21
81.984000
 72
     1
 10
301.795200
 20
81.984000
 11
301.795200
 21
71.803200
 72
     1
 10
301.795200
 20
71.803200
 11
302.198400
 21
71.803200
 72
     1
 10
302.198400
 20
71.803200
 11
302.198400
 21
81.984000
 97
     0
 75
     0
 76
     1
 98
     1
 10
0.000000
 20
0.000000
  0
POLYLINE
  8
0
  6
CONTINUOUS
 66
     1
 40
0.000000
 41
0.000000
 70
     1
  0
VERTEX
  8
0
  6
CONTINUOUS
 10
302.198400
 20
81.984000
  0
VERTEX
  8
0
  6
CONTINUOUS
 10
301.795200
 20
81.984000
  0
VERTEX
  8
0
  6
CONTINUOUS
 10
301.795200
 20
71.803200
  0
VERTEX
  8
0
  6
CONTINUOUS
 10
302.198400
 20
71.803200
  0
SEQEND
  8
0
  0
HATCH
  5
 27686
100
AcDbEntity
  8
0
 62
    36
100
AcDbHatch
 10
0.000000
 20
0.000000
 30
0.000000
210
0.000000
220
0.000000
230
0.016800
  2
SOLID
 70
     1
 71
     0
 91
     1
 92
     1
 93
     4
 72
     1
 10
302.198400
 20
96.751200
 11
301.795200
 21
96.751200
 72
     1
 10
301.795200
 20
96.751200
 11
301.795200
 21
86.570400
 72
     1
 10
301.795200
 20
86.570400
 11
302.198400
 21
86.570400
 72
     1
 10
302.198400
 20
86.570400
 11
302.198400
 21
96.751200
 97
     0
 75
     0
 76
     1
 98
     1
 10
0.000000
 20
0.000000
  0
POLYLINE
  8
0
  6
CONTINUOUS
 66
     1
 40
0.000000
 41
0.000000
 70
     1
  0
VERTEX
  8
0
  6
CONTINUOUS
 10
302.198400
 20
96.751200
  0
VERTEX
  8
0
  6
CONTINUOUS
 10
301.795200
 20
96.751200
  0
VERTEX
  8
0
  6
CONTINUOUS
 10
301.795200
 20
86.570400
  0
VERTEX
  8
0
  6
CONTINUOUS
 10
302.198400
 20
86.570400
  0
SEQEND
  8
0
  0
HATCH
  5
 27687
100
AcDbEntity
  8
0
 62
     1
100
AcDbHatch
 10
0.000000
 20
0.000000
 30
0.000000
210
0.000000
220
0.000000
230
0.016800
  2
SOLID
 70
     1
 71
     0
 91
     1
 92
     1
 93
     4
 72
     1
 10
302.400000
 20
71.803200
 11
301.140000
 21
71.803200
 72
     1
 10
301.140000
 20
71.803200
 11
301.140000
 21
68.157600
 72
     1
 10
301.140000
 20
68.157600
 11
302.400000
 21
68.157600
 72
     1
 10
302.400000
 20
68.157600
 11
302.400000
 21
71.803200
 97
     0
 75
     0
 76
     1
 98
     1
 10
0.000000
 20
0.000000
  0
POLYLINE
  8
0
  6
CONTINUOUS
 66
     1
 40
0.000000
 41
0.000000
 70
     1
  0
VERTEX
  8
0
  6
CONTINUOUS
 10
302.400000
 20
71.803200
  0
VERTEX
  8
0
  6
CONTINUOUS
 10
301.140000
 20
71.803200
  0
VERTEX
  8
0
  6
CONTINUOUS
 10
301.140000
 20
68.157600
  0
VERTEX
  8
0
  6
CONTINUOUS
 10
302.400000
 20
68.157600
  0
SEQEND
  8
0
  0
HATCH
  5
 27688
100
AcDbEntity
  8
0
 62
     1
100
AcDbHatch
 10
0.000000
 20
0.000000
 30
0.000000
210
0.000000
220
0.000000
230
0.016800
  2
SOLID
 70
     1
 71
     0
 91
     1
 92
     1
 93
     8
 72
     1
 10
324.021600
 20
98.548800
 11
324.021600
 21
102.194400
 72
     1
 10
324.021600
 20
102.194400
 11
349.171200
 21
102.194400
 72
     1
 10
349.171200
 20
102.194400
 11
349.171200
 21
103.471200
 72
     1
 10
349.171200
 20
103.471200
 11
324.021600
 21
103.471200
 72
     1
 10
324.021600
 20
103.471200
 11
322.761600
 21
103.471200
 72
     1
 10
322.761600
 20
103.471200
 11
322.761600
 21
102.194400
 72
     1
 10
322.761600
 20
102.194400
 11
322.761600
 21
98.548800
 72
     1
 10
322.761600
 20
98.548800
 11
324.021600
 21
98.548800
 97
     0
 75
     0
 76
     1
 98
     1
 10
0.000000
 20
0.000000
  0
POLYLINE
  8
0
  6
CONTINUOUS
 66
     1
 40
0.000000
 41
0.000000
 70
     1
  0
VERTEX
  8
0
  6
CONTINUOUS
 10
324.021600
 20
98.548800
  0
VERTEX
  8
0
  6
CONTINUOUS
 10
324.021600
 20
102.194400
  0
VERTEX
  8
0
  6
CONTINUOUS
 10
349.171200
 20
102.194400
  0
VERTEX
  8
0
  6
CONTINUOUS
 10
349.171200
 20
103.471200
  0
VERTEX
  8
0
  6
CONTINUOUS
 10
324.021600
 20
103.471200
  0
VERTEX
  8
0
  6
CONTINUOUS
 10
322.761600
 20
103.471200
  0
VERTEX
  8
0
  6
CONTINUOUS
 10
322.761600
 20
102.194400
  0
VERTEX
  8
0
  6
CONTINUOUS
 10
322.761600
 20
98.548800
  0
SEQEND
  8
0
  0
HATCH
  5
 27689
100
AcDbEntity
  8
0
 62
     1
100
AcDbHatch
 10
0.000000
 20
0.000000
 30
0.000000
210
0.000000
220
0.000000
230
0.016800
  2
SOLID
 70
     1
 71
     0
 91
     1
 92
     1
 93
     4
 72
     1
 10
353.354400
 20
116.575200
 11
322.022400
 21
116.575200
 72
     1
 10
322.022400
 20
116.575200
 11
322.022400
 21
115.315200
 72
     1
 10
322.022400
 20
115.315200
 11
353.354400
 21
115.315200
 72
     1
 10
353.354400
 20
115.315200
 11
353.354400
 21
116.575200
 97
     0
 75
     0
 76
     1
 98
     1
 10
0.000000
 20
0.000000
  0
POLYLINE
  8
0
  6
CONTINUOUS
 66
     1
 40
0.000000
 41
0.000000
 70
     1
  0
VERTEX
  8
0
  6
CONTINUOUS
 10
353.354400
 20
116.575200
  0
VERTEX
  8
0
  6
CONTINUOUS
 10
322.022400
 20
116.575200
  0
VERTEX
  8
0
  6
CONTINUOUS
 10
322.022400
 20
115.315200
  0
VERTEX
  8
0
  6
CONTINUOUS
 10
353.354400
 20
115.315200
  0
SEQEND
  8
0
  0
HATCH
  5
 27690
100
AcDbEntity
  8
0
 62
     1
100
AcDbHatch
 10
0.000000
 20
0.000000
 30
0.000000
210
0.000000
220
0.000000
230
0.016800
  2
SOLID
 70
     1
 71
     0
 91
     1
 92
     1
 93
     4
 72
     1
 10
324.021600
 20
88.368000
 11
322.761600
 21
88.368000
 72
     1
 10
322.761600
 20
88.368000
 11
322.761600
 21
85.965600
 72
     1
 10
322.761600
 20
85.965600
 11
324.021600
 21
85.965600
 72
     1
 10
324.021600
 20
85.965600
 11
324.021600
 21
88.368000
 97
     0
 75
     0
 76
     1
 98
     1
 10
0.000000
 20
0.000000
  0
POLYLINE
  8
0
  6
CONTINUOUS
 66
     1
 40
0.000000
 41
0.000000
 70
     1
  0
VERTEX
  8
0
  6
CONTINUOUS
 10
324.021600
 20
88.368000
  0
VERTEX
  8
0
  6
CONTINUOUS
 10
322.761600
 20
88.368000
  0
VERTEX
  8
0
  6
CONTINUOUS
 10
322.761600
 20
85.965600
  0
VERTEX
  8
0
  6
CONTINUOUS
 10
324.021600
 20
85.965600
  0
SEQEND
  8
0
  0
HATCH
  5
 27691
100
AcDbEntity
  8
0
 62
     1
100
AcDbHatch
 10
0.000000
 20
0.000000
 30
0.000000
210
0.000000
220
0.000000
230
0.016800
  2
SOLID
 70
     1
 71
     0
 91
     1
 92
     1
 93
    12
 72
     1
 10
311.858400
 20
115.315200
 11
311.858400
 21
116.575200
 72
     1
 10
311.858400
 20
116.575200
 11
310.833600
 21
116.575200
 72
     1
 10
310.833600
 20
116.575200
 11
310.816800
 21
150.360000
 72
     1
 10
310.816800
 20
150.360000
 11
309.590400
 21
150.360000
 72
     1
 10
309.590400
 20
150.360000
 11
309.590400
 21
115.315200
 72
     1
 10
309.590400
 20
115.315200
 11
309.590400
 21
98.145600
 72
     1
 10
309.590400
 20
98.145600
 11
301.207200
 21
98.145600
 72
     1
 10
301.207200
 20
98.145600
 11
301.207200
 21
96.885600
 72
     1
 10
301.207200
 20
96.885600
 11
309.590400
 21
96.885600
 72
     1
 10
309.590400
 20
96.885600
 11
310.850400
 21
96.885600
 72
     1
 10
310.850400
 20
96.885600
 11
310.850400
 21
115.315200
 72
     1
 10
310.850400
 20
115.315200
 11
311.858400
 21
115.315200
 97
     0
 75
     0
 76
     1
 98
     1
 10
0.000000
 20
0.000000
  0
POLYLINE
  8
0
  6
CONTINUOUS
 66
     1
 40
0.000000
 41
0.000000
 70
     1
  0
VERTEX
  8
0
  6
CONTINUOUS
 10
311.858400
 20
115.315200
  0
VERTEX
  8
0
  6
CONTINUOUS
 10
311.858400
 20
116.575200
  0
VERTEX
  8
0
  6
CONTINUOUS
 10
310.833600
 20
116.575200
  0
VERTEX
  8
0
  6
CONTINUOUS
 10
310.816800
 20
150.360000
  0
VERTEX
  8
0
  6
CONTINUOUS
 10
309.590400
 20
150.360000
  0
VERTEX
  8
0
  6
CONTINUOUS
 10
309.590400
 20
115.315200
  0
VERTEX
  8
0
  6
CONTINUOUS
 10
309.590400
 20
98.145600
  0
VERTEX
  8
0
  6
CONTINUOUS
 10
301.207200
 20
98.145600
  0
VERTEX
  8
0
  6
CONTINUOUS
 10
301.207200
 20
96.885600
  0
VERTEX
  8
0
  6
CONTINUOUS
 10
309.590400
 20
96.885600
  0
VERTEX
  8
0
  6
CONTINUOUS
 10
310.850400
 20
96.885600
  0
VERTEX
  8
0
  6
CONTINUOUS
 10
310.850400
 20
115.315200
  0
SEQEND
  8
0
  0
HATCH
  5
 27692
100
AcDbEntity
  8
0
 62
     1
100
AcDbHatch
 10
0.000000
 20
0.000000
 30
0.000000
210
0.000000
220
0.000000
230
0.016800
  2
SOLID
 70
     1
 71
     0
 91
     1
 92
     1
 93
     8
 72
     1
 10
302.467200
 20
81.984000
 11
302.467200
 21
86.570400
 72
     1
 10
302.467200
 20
86.570400
 11
301.207200
 21
86.570400
 72
     1
 10
301.207200
 20
86.570400
 11
301.207200
 21
85.965600
 72
     1
 10
301.207200
 20
85.965600
 11
272.361600
 21
85.965600
 72
     1
 10
272.361600
 20
85.965600
 11
272.361600
 21
84.705600
 72
     1
 10
272.361600
 20
84.705600
 11
301.207200
 21
84.705600
 72
     1
 10
301.207200
 20
84.705600
 11
301.207200
 21
81.984000
 72
     1
 10
301.207200
 20
81.984000
 11
302.467200
 21
81.984000
 97
     0
 75
     0
 76
     1
 98
     1
 10
0.000000
 20
0.000000
  0
POLYLINE
  8
0
  6
CONTINUOUS
 66
     1
 40
0.000000
 41
0.000000
 70
     1
  0
VERTEX
  8
0
  6
CONTINUOUS
 10
302.467200
 20
81.984000
  0
VERTEX
  8
0
  6
CONTINUOUS
 10
302.467200
 20
86.570400
  0
VERTEX
  8
0
  6
CONTINUOUS
 10
301.207200
 20
86.570400
  0
VERTEX
  8
0
  6
CONTINUOUS
 10
301.207200
 20
85.965600
  0
VERTEX
  8
0
  6
CONTINUOUS
 10
272.361600
 20
85.965600
  0
VERTEX
  8
0
  6
CONTINUOUS
 10
272.361600
 20
84.705600
  0
VERTEX
  8
0
  6
CONTINUOUS
 10
301.207200
 20
84.705600
  0
VERTEX
  8
0
  6
CONTINUOUS
 10
301.207200
 20
81.984000
  0
SEQEND
  8
0
  0
ENDSEC
  0
EOF
