  0
SECTION
  2
HEADER
  9
$ACADVER
  1
AC1006
  9
$EXTMIN
 10
30.492000
 20
21.621600
  9
$EXTMAX
 10
339.494400
 20
219.290400
  9
$LTSCALE
 40
1.680000
  9
$PDMODE
 70
    35
  9
$PDSIZE
 40
1.344000
  0
ENDSEC
  0
SECTION
  2
TABLES
  0
TABLE
  2
LTYPE
 70
     9
  0
LTYPE
  2
CONTINUOUS
 70
    64
  3
Solid line
 72
    65
 73
     0
 40
0.000000
  0
LTYPE
  2
DASHED
 70
    64
  3
__ __ __ __ __ __ __ __ __ __ __ __ __ __ __
 72
    65
 73
     2
 40
0.012600
 49
0.008400
 49
-0.004200
  0
LTYPE
  2
HIDDEN
 70
    64
  3
 _ _ _ _ _ _ _ _ _ _ _ _ _ _ _ _ _ _ _ _ _ _
 72
    65
 73
     2
 40
0.006300
 49
0.004200
 49
-0.002100
  0
LTYPE
  2
CENTER
 70
    64
  3
____ _ ____ _ ____ _ ____ _ ____ _ ____ _ ____
 72
    65
 73
     4
 40
0.033600
 49
0.021000
 49
-0.004200
 49
0.004200
 49
-0.004200
  0
LTYPE
  2
PHANTOM
 70
    64
  3
_____ _ _ _____ _ _ _____ _ _ _____ _ _ ____
 72
    65
 73
     6
 40
0.042000
 49
0.021000
 49
-0.004200
 49
0.004200
 49
-0.004200
 49
0.004200
 49
-0.004200
  0
LTYPE
  2
DOT
 70
    64
  3
...............................................
 72
    65
 73
     2
 40
0.004200
 49
0.000000
 49
-0.004200
  0
LTYPE
  2
DASHDOT
 70
    64
  3
__ . __ . __ . __ . __ . __ . __ . __ . __ . __
 72
    65
 73
     4
 40
0.016800
 49
0.008400
 49
-0.004200
 49
0.000000
 49
-0.004200
  0
LTYPE
  2
BORDER
 70
    64
  3
__ __ . __ __ . __ __ . __ __ . __ __ . __ __
 72
    65
 73
     6
 40
0.029400
 49
0.008400
 49
-0.004200
 49
0.008400
 49
-0.004200
 49
0.000000
 49
-0.004200
  0
LTYPE
  2
DIVIDE
 70
    64
  3
__ . . __ . . __ . . __ . . __ . . __ . . __
 72
    65
 73
     6
 40
0.021000
 49
0.008400
 49
-0.004200
 49
0.000000
 49
-0.004200
 49
0.000000
 49
-0.004200
  0
LTYPE
  2
DOTDOT
 70
    64
  3
 . .  . .  . .  . .  . .  . . 
 72
    65
 73
     5
 40
0.009240
 49
-0.004200
 49
0.000000
 49
-0.004200
 49
0.000000
 49
-0.004200
  0
ENDTAB
  0
TABLE
  2
STYLE
 70
     6
  0
STYLE
 70
     0
  2
SN0
 40
0.000000
 41
0.016800
 50
0.000000
 71
     0
 42
0.000000
  3
ROMAND
  0
STYLE
 70
    68
  2
SV0
 40
0.000000
 41
0.016800
 50
0.000000
 71
     0
 42
0.000000
  3
ROMAND
  0
STYLE
 70
     0
  2
SN1
 40
0.000000
 41
0.016800
 50
0.000000
 71
     0
 42
0.000000
  3
ROMAND
  0
STYLE
 70
    68
  2
SV1
 40
0.000000
 41
0.016800
 50
0.000000
 71
     0
 42
0.000000
  3
ROMAND
  0
STYLE
 70
     0
  2
SN2
 40
0.000000
 41
0.016800
 50
0.000000
 71
     0
 42
0.000000
  3
ROMANS
  0
STYLE
 70
    68
  2
SV2
 40
0.000000
 41
0.016800
 50
0.000000
 71
     0
 42
0.000000
  3
ROMANS
  0
ENDTAB
  0
TABLE
  2
LAYER
 70
     3
  0
LAYER
  2
FOREGROUND
 70
    64
 62
     7
  6
CONTINUOUS
  0
LAYER
  2
BACKGROUND
 70
    65
 62
    -7
  6
CONTINUOUS
  0
LAYER
  2
0
 70
    64
 62
     7
  6
CONTINUOUS
  0
ENDTAB
  0
ENDSEC
  0
SECTION
  2
ENTITIES
  0
HATCH
  5
 30358
100
AcDbEntity
  8
0
 62
   136
100
AcDbHatch
 10
0.000000
 20
0.000000
 30
0.000000
210
0.000000
220
0.000000
230
0.016800
  2
SOLID
 70
     1
 71
     0
 91
     1
 92
     1
 93
     4
 72
     1
 10
120.943200
 20
168.352800
 11
123.345600
 21
168.352800
 72
     1
 10
123.345600
 20
168.352800
 11
123.345600
 21
115.752000
 72
     1
 10
123.345600
 20
115.752000
 11
120.943200
 21
115.752000
 72
     1
 10
120.943200
 20
115.752000
 11
120.943200
 21
168.352800
 97
     0
 75
     0
 76
     1
 98
     1
 10
0.000000
 20
0.000000
  0
POLYLINE
  8
0
  6
CONTINUOUS
 66
     1
 40
0.201600
 41
0.201600
 70
     1
  0
VERTEX
  8
0
  6
CONTINUOUS
 10
120.943200
 20
168.352800
  0
VERTEX
  8
0
  6
CONTINUOUS
 10
123.345600
 20
168.352800
  0
VERTEX
  8
0
  6
CONTINUOUS
 10
123.345600
 20
115.752000
  0
VERTEX
  8
0
  6
CONTINUOUS
 10
120.943200
 20
115.752000
  0
SEQEND
  8
0
  0
HATCH
  5
 30359
100
AcDbEntity
  8
0
 62
    52
100
AcDbHatch
 10
0.000000
 20
0.000000
 30
0.000000
210
0.000000
220
0.000000
230
0.016800
  2
SOLID
 70
     1
 71
     0
 91
     1
 92
     1
 93
     4
 72
     1
 10
120.456000
 20
117.835200
 11
120.456000
 21
121.027200
 72
     1
 10
120.456000
 20
121.027200
 11
108.981600
 21
121.027200
 72
     1
 10
108.981600
 20
121.027200
 11
108.981600
 21
117.835200
 72
     1
 10
108.981600
 20
117.835200
 11
120.456000
 21
117.835200
 97
     0
 75
     0
 76
     1
 98
     1
 10
0.000000
 20
0.000000
  0
POLYLINE
  8
0
  6
CONTINUOUS
 66
     1
 40
0.000000
 41
0.000000
 70
     1
  0
VERTEX
  8
0
  6
CONTINUOUS
 10
120.456000
 20
117.835200
  0
VERTEX
  8
0
  6
CONTINUOUS
 10
120.456000
 20
121.027200
  0
VERTEX
  8
0
  6
CONTINUOUS
 10
108.981600
 20
121.027200
  0
VERTEX
  8
0
  6
CONTINUOUS
 10
108.981600
 20
117.835200
  0
SEQEND
  8
0
  0
HATCH
  5
 30360
100
AcDbEntity
  8
0
 62
    52
100
AcDbHatch
 10
0.000000
 20
0.000000
 30
0.000000
210
0.000000
220
0.000000
230
0.016800
  2
SOLID
 70
     1
 71
     0
 91
     1
 92
     1
 93
     4
 72
     1
 10
120.456000
 20
120.825600
 11
120.456000
 21
124.034400
 72
     1
 10
120.456000
 20
124.034400
 11
108.981600
 21
124.034400
 72
     1
 10
108.981600
 20
124.034400
 11
108.981600
 21
120.825600
 72
     1
 10
108.981600
 20
120.825600
 11
120.456000
 21
120.825600
 97
     0
 75
     0
 76
     1
 98
     1
 10
0.000000
 20
0.000000
  0
POLYLINE
  8
0
  6
CONTINUOUS
 66
     1
 40
0.000000
 41
0.000000
 70
     1
  0
VERTEX
  8
0
  6
CONTINUOUS
 10
120.456000
 20
120.825600
  0
VERTEX
  8
0
  6
CONTINUOUS
 10
120.456000
 20
124.034400
  0
VERTEX
  8
0
  6
CONTINUOUS
 10
108.981600
 20
124.034400
  0
VERTEX
  8
0
  6
CONTINUOUS
 10
108.981600
 20
120.825600
  0
SEQEND
  8
0
  0
HATCH
  5
 30361
100
AcDbEntity
  8
0
 62
    52
100
AcDbHatch
 10
0.000000
 20
0.000000
 30
0.000000
210
0.000000
220
0.000000
230
0.016800
  2
SOLID
 70
     1
 71
     0
 91
     1
 92
     1
 93
     4
 72
     1
 10
120.456000
 20
123.832800
 11
120.456000
 21
127.024800
 72
     1
 10
120.456000
 20
127.024800
 11
108.981600
 21
127.024800
 72
     1
 10
108.981600
 20
127.024800
 11
108.981600
 21
123.832800
 72
     1
 10
108.981600
 20
123.832800
 11
120.456000
 21
123.832800
 97
     0
 75
     0
 76
     1
 98
     1
 10
0.000000
 20
0.000000
  0
POLYLINE
  8
0
  6
CONTINUOUS
 66
     1
 40
0.000000
 41
0.000000
 70
     1
  0
VERTEX
  8
0
  6
CONTINUOUS
 10
120.456000
 20
123.832800
  0
VERTEX
  8
0
  6
CONTINUOUS
 10
120.456000
 20
127.024800
  0
VERTEX
  8
0
  6
CONTINUOUS
 10
108.981600
 20
127.024800
  0
VERTEX
  8
0
  6
CONTINUOUS
 10
108.981600
 20
123.832800
  0
SEQEND
  8
0
  0
HATCH
  5
 30362
100
AcDbEntity
  8
0
 62
    52
100
AcDbHatch
 10
0.000000
 20
0.000000
 30
0.000000
210
0.000000
220
0.000000
230
0.016800
  2
SOLID
 70
     1
 71
     0
 91
     1
 92
     1
 93
     4
 72
     1
 10
120.456000
 20
126.823200
 11
120.456000
 21
130.032000
 72
     1
 10
120.456000
 20
130.032000
 11
108.981600
 21
130.032000
 72
     1
 10
108.981600
 20
130.032000
 11
108.981600
 21
126.823200
 72
     1
 10
108.981600
 20
126.823200
 11
120.456000
 21
126.823200
 97
     0
 75
     0
 76
     1
 98
     1
 10
0.000000
 20
0.000000
  0
POLYLINE
  8
0
  6
CONTINUOUS
 66
     1
 40
0.000000
 41
0.000000
 70
     1
  0
VERTEX
  8
0
  6
CONTINUOUS
 10
120.456000
 20
126.823200
  0
VERTEX
  8
0
  6
CONTINUOUS
 10
120.456000
 20
130.032000
  0
VERTEX
  8
0
  6
CONTINUOUS
 10
108.981600
 20
130.032000
  0
VERTEX
  8
0
  6
CONTINUOUS
 10
108.981600
 20
126.823200
  0
SEQEND
  8
0
  0
HATCH
  5
 30363
100
AcDbEntity
  8
0
 62
    52
100
AcDbHatch
 10
0.000000
 20
0.000000
 30
0.000000
210
0.000000
220
0.000000
230
0.016800
  2
SOLID
 70
     1
 71
     0
 91
     1
 92
     1
 93
     4
 72
     1
 10
120.456000
 20
129.830400
 11
120.456000
 21
133.039200
 72
     1
 10
120.456000
 20
133.039200
 11
108.981600
 21
133.039200
 72
     1
 10
108.981600
 20
133.039200
 11
108.981600
 21
129.830400
 72
     1
 10
108.981600
 20
129.830400
 11
120.456000
 21
129.830400
 97
     0
 75
     0
 76
     1
 98
     1
 10
0.000000
 20
0.000000
  0
POLYLINE
  8
0
  6
CONTINUOUS
 66
     1
 40
0.000000
 41
0.000000
 70
     1
  0
VERTEX
  8
0
  6
CONTINUOUS
 10
120.456000
 20
129.830400
  0
VERTEX
  8
0
  6
CONTINUOUS
 10
120.456000
 20
133.039200
  0
VERTEX
  8
0
  6
CONTINUOUS
 10
108.981600
 20
133.039200
  0
VERTEX
  8
0
  6
CONTINUOUS
 10
108.981600
 20
129.830400
  0
SEQEND
  8
0
  0
HATCH
  5
 30364
100
AcDbEntity
  8
0
 62
    52
100
AcDbHatch
 10
0.000000
 20
0.000000
 30
0.000000
210
0.000000
220
0.000000
230
0.016800
  2
SOLID
 70
     1
 71
     0
 91
     1
 92
     1
 93
     4
 72
     1
 10
120.456000
 20
132.837600
 11
120.456000
 21
136.029600
 72
     1
 10
120.456000
 20
136.029600
 11
108.981600
 21
136.029600
 72
     1
 10
108.981600
 20
136.029600
 11
108.981600
 21
132.837600
 72
     1
 10
108.981600
 20
132.837600
 11
120.456000
 21
132.837600
 97
     0
 75
     0
 76
     1
 98
     1
 10
0.000000
 20
0.000000
  0
POLYLINE
  8
0
  6
CONTINUOUS
 66
     1
 40
0.000000
 41
0.000000
 70
     1
  0
VERTEX
  8
0
  6
CONTINUOUS
 10
120.456000
 20
132.837600
  0
VERTEX
  8
0
  6
CONTINUOUS
 10
120.456000
 20
136.029600
  0
VERTEX
  8
0
  6
CONTINUOUS
 10
108.981600
 20
136.029600
  0
VERTEX
  8
0
  6
CONTINUOUS
 10
108.981600
 20
132.837600
  0
SEQEND
  8
0
  0
HATCH
  5
 30365
100
AcDbEntity
  8
0
 62
    52
100
AcDbHatch
 10
0.000000
 20
0.000000
 30
0.000000
210
0.000000
220
0.000000
230
0.016800
  2
SOLID
 70
     1
 71
     0
 91
     1
 92
     1
 93
     4
 72
     1
 10
120.456000
 20
135.828000
 11
120.456000
 21
139.036800
 72
     1
 10
120.456000
 20
139.036800
 11
108.981600
 21
139.036800
 72
     1
 10
108.981600
 20
139.036800
 11
108.981600
 21
135.828000
 72
     1
 10
108.981600
 20
135.828000
 11
120.456000
 21
135.828000
 97
     0
 75
     0
 76
     1
 98
     1
 10
0.000000
 20
0.000000
  0
POLYLINE
  8
0
  6
CONTINUOUS
 66
     1
 40
0.000000
 41
0.000000
 70
     1
  0
VERTEX
  8
0
  6
CONTINUOUS
 10
120.456000
 20
135.828000
  0
VERTEX
  8
0
  6
CONTINUOUS
 10
120.456000
 20
139.036800
  0
VERTEX
  8
0
  6
CONTINUOUS
 10
108.981600
 20
139.036800
  0
VERTEX
  8
0
  6
CONTINUOUS
 10
108.981600
 20
135.828000
  0
SEQEND
  8
0
  0
HATCH
  5
 30366
100
AcDbEntity
  8
0
 62
    52
100
AcDbHatch
 10
0.000000
 20
0.000000
 30
0.000000
210
0.000000
220
0.000000
230
0.016800
  2
SOLID
 70
     1
 71
     0
 91
     1
 92
     1
 93
     4
 72
     1
 10
120.456000
 20
138.835200
 11
120.456000
 21
142.027200
 72
     1
 10
120.456000
 20
142.027200
 11
108.981600
 21
142.027200
 72
     1
 10
108.981600
 20
142.027200
 11
108.981600
 21
138.835200
 72
     1
 10
108.981600
 20
138.835200
 11
120.456000
 21
138.835200
 97
     0
 75
     0
 76
     1
 98
     1
 10
0.000000
 20
0.000000
  0
POLYLINE
  8
0
  6
CONTINUOUS
 66
     1
 40
0.000000
 41
0.000000
 70
     1
  0
VERTEX
  8
0
  6
CONTINUOUS
 10
120.456000
 20
138.835200
  0
VERTEX
  8
0
  6
CONTINUOUS
 10
120.456000
 20
142.027200
  0
VERTEX
  8
0
  6
CONTINUOUS
 10
108.981600
 20
142.027200
  0
VERTEX
  8
0
  6
CONTINUOUS
 10
108.981600
 20
138.835200
  0
SEQEND
  8
0
  0
HATCH
  5
 30367
100
AcDbEntity
  8
0
 62
    52
100
AcDbHatch
 10
0.000000
 20
0.000000
 30
0.000000
210
0.000000
220
0.000000
230
0.016800
  2
SOLID
 70
     1
 71
     0
 91
     1
 92
     1
 93
     4
 72
     1
 10
120.456000
 20
141.825600
 11
120.456000
 21
145.034400
 72
     1
 10
120.456000
 20
145.034400
 11
108.981600
 21
145.034400
 72
     1
 10
108.981600
 20
145.034400
 11
108.981600
 21
141.825600
 72
     1
 10
108.981600
 20
141.825600
 11
120.456000
 21
141.825600
 97
     0
 75
     0
 76
     1
 98
     1
 10
0.000000
 20
0.000000
  0
POLYLINE
  8
0
  6
CONTINUOUS
 66
     1
 40
0.000000
 41
0.000000
 70
     1
  0
VERTEX
  8
0
  6
CONTINUOUS
 10
120.456000
 20
141.825600
  0
VERTEX
  8
0
  6
CONTINUOUS
 10
120.456000
 20
145.034400
  0
VERTEX
  8
0
  6
CONTINUOUS
 10
108.981600
 20
145.034400
  0
VERTEX
  8
0
  6
CONTINUOUS
 10
108.981600
 20
141.825600
  0
SEQEND
  8
0
  0
HATCH
  5
 30368
100
AcDbEntity
  8
0
 62
    52
100
AcDbHatch
 10
0.000000
 20
0.000000
 30
0.000000
210
0.000000
220
0.000000
230
0.016800
  2
SOLID
 70
     1
 71
     0
 91
     1
 92
     1
 93
     4
 72
     1
 10
120.456000
 20
144.832800
 11
120.456000
 21
148.024800
 72
     1
 10
120.456000
 20
148.024800
 11
108.981600
 21
148.024800
 72
     1
 10
108.981600
 20
148.024800
 11
108.981600
 21
144.832800
 72
     1
 10
108.981600
 20
144.832800
 11
120.456000
 21
144.832800
 97
     0
 75
     0
 76
     1
 98
     1
 10
0.000000
 20
0.000000
  0
POLYLINE
  8
0
  6
CONTINUOUS
 66
     1
 40
0.000000
 41
0.000000
 70
     1
  0
VERTEX
  8
0
  6
CONTINUOUS
 10
120.456000
 20
144.832800
  0
VERTEX
  8
0
  6
CONTINUOUS
 10
120.456000
 20
148.024800
  0
VERTEX
  8
0
  6
CONTINUOUS
 10
108.981600
 20
148.024800
  0
VERTEX
  8
0
  6
CONTINUOUS
 10
108.981600
 20
144.832800
  0
SEQEND
  8
0
  0
HATCH
  5
 30369
100
AcDbEntity
  8
0
 62
    52
100
AcDbHatch
 10
0.000000
 20
0.000000
 30
0.000000
210
0.000000
220
0.000000
230
0.016800
  2
SOLID
 70
     1
 71
     0
 91
     1
 92
     1
 93
     4
 72
     1
 10
120.456000
 20
147.823200
 11
120.456000
 21
151.032000
 72
     1
 10
120.456000
 20
151.032000
 11
108.981600
 21
151.032000
 72
     1
 10
108.981600
 20
151.032000
 11
108.981600
 21
147.823200
 72
     1
 10
108.981600
 20
147.823200
 11
120.456000
 21
147.823200
 97
     0
 75
     0
 76
     1
 98
     1
 10
0.000000
 20
0.000000
  0
POLYLINE
  8
0
  6
CONTINUOUS
 66
     1
 40
0.000000
 41
0.000000
 70
     1
  0
VERTEX
  8
0
  6
CONTINUOUS
 10
120.456000
 20
147.823200
  0
VERTEX
  8
0
  6
CONTINUOUS
 10
120.456000
 20
151.032000
  0
VERTEX
  8
0
  6
CONTINUOUS
 10
108.981600
 20
151.032000
  0
VERTEX
  8
0
  6
CONTINUOUS
 10
108.981600
 20
147.823200
  0
SEQEND
  8
0
  0
HATCH
  5
 30370
100
AcDbEntity
  8
0
 62
    52
100
AcDbHatch
 10
0.000000
 20
0.000000
 30
0.000000
210
0.000000
220
0.000000
230
0.016800
  2
SOLID
 70
     1
 71
     0
 91
     1
 92
     1
 93
     4
 72
     1
 10
120.456000
 20
150.830400
 11
120.456000
 21
154.039200
 72
     1
 10
120.456000
 20
154.039200
 11
108.981600
 21
154.039200
 72
     1
 10
108.981600
 20
154.039200
 11
108.981600
 21
150.830400
 72
     1
 10
108.981600
 20
150.830400
 11
120.456000
 21
150.830400
 97
     0
 75
     0
 76
     1
 98
     1
 10
0.000000
 20
0.000000
  0
POLYLINE
  8
0
  6
CONTINUOUS
 66
     1
 40
0.000000
 41
0.000000
 70
     1
  0
VERTEX
  8
0
  6
CONTINUOUS
 10
120.456000
 20
150.830400
  0
VERTEX
  8
0
  6
CONTINUOUS
 10
120.456000
 20
154.039200
  0
VERTEX
  8
0
  6
CONTINUOUS
 10
108.981600
 20
154.039200
  0
VERTEX
  8
0
  6
CONTINUOUS
 10
108.981600
 20
150.830400
  0
SEQEND
  8
0
  0
HATCH
  5
 30371
100
AcDbEntity
  8
0
 62
   230
100
AcDbHatch
 10
0.000000
 20
0.000000
 30
0.000000
210
0.000000
220
0.000000
230
0.016800
  2
SOLID
 70
     1
 71
     0
 91
     1
 92
     1
 93
     4
 72
     1
 10
108.595200
 20
168.084000
 11
108.981600
 21
168.084000
 72
     1
 10
108.981600
 20
168.084000
 11
108.981600
 21
117.952800
 72
     1
 10
108.981600
 20
117.952800
 11
108.595200
 21
117.952800
 72
     1
 10
108.595200
 20
117.952800
 11
108.595200
 21
168.084000
 97
     0
 75
     0
 76
     1
 98
     1
 10
0.000000
 20
0.000000
  0
POLYLINE
  8
0
  6
CONTINUOUS
 66
     1
 40
0.000000
 41
0.000000
 70
     1
  0
VERTEX
  8
0
  6
CONTINUOUS
 10
108.595200
 20
168.084000
  0
VERTEX
  8
0
  6
CONTINUOUS
 10
108.981600
 20
168.084000
  0
VERTEX
  8
0
  6
CONTINUOUS
 10
108.981600
 20
117.952800
  0
VERTEX
  8
0
  6
CONTINUOUS
 10
108.595200
 20
117.952800
  0
SEQEND
  8
0
  0
HATCH
  5
 30372
100
AcDbEntity
  8
0
 62
   231
100
AcDbHatch
 10
0.000000
 20
0.000000
 30
0.000000
210
0.000000
220
0.000000
230
0.016800
  2
SOLID
 70
     1
 71
     0
 91
     1
 92
     1
 93
     6
 72
     1
 10
108.981600
 20
168.067200
 11
108.981600
 21
153.770400
 72
     1
 10
108.981600
 20
153.770400
 11
120.892800
 21
153.770400
 72
     1
 10
120.892800
 20
153.770400
 11
120.892800
 21
155.316000
 72
     1
 10
120.892800
 20
155.316000
 11
123.144000
 21
155.316000
 72
     1
 10
123.144000
 20
155.316000
 11
123.144000
 21
168.067200
 72
     1
 10
123.144000
 20
168.067200
 11
108.981600
 21
168.067200
 97
     0
 75
     0
 76
     1
 98
     1
 10
0.000000
 20
0.000000
  0
POLYLINE
  8
0
  6
CONTINUOUS
 66
     1
 40
0.000000
 41
0.000000
 70
     1
  0
VERTEX
  8
0
  6
CONTINUOUS
 10
108.981600
 20
168.067200
  0
VERTEX
  8
0
  6
CONTINUOUS
 10
108.981600
 20
153.770400
  0
VERTEX
  8
0
  6
CONTINUOUS
 10
120.892800
 20
153.770400
  0
VERTEX
  8
0
  6
CONTINUOUS
 10
120.892800
 20
155.316000
  0
VERTEX
  8
0
  6
CONTINUOUS
 10
123.144000
 20
155.316000
  0
VERTEX
  8
0
  6
CONTINUOUS
 10
123.144000
 20
168.067200
  0
SEQEND
  8
0
  0
LINE
  8
0
  6
DOT
 10
123.144000
 20
168.067200
 11
123.144000
 21
155.316000
  0
LINE
  8
0
  6
DOT
 10
117.516000
 20
168.067200
 11
122.791200
 21
155.316000
  0
LINE
  8
0
  6
CONTINUOUS
 10
122.505600
 20
155.316000
 11
117.213600
 21
168.067200
  0
LINE
  8
0
  6
CONTINUOUS
 10
108.981600
 20
167.916000
 11
121.598400
 21
155.316000
  0
LINE
  8
0
  6
DOT
 10
121.984800
 20
155.316000
 11
109.216800
 21
168.067200
  0
LINE
  8
0
  6
DOT
 10
108.981600
 20
154.022400
 11
120.892800
 21
154.022400
  0
LINE
  8
0
  6
DOT
 10
108.981600
 20
159.919200
 11
120.892800
 21
154.980000
  0
LINE
  8
0
  6
CONTINUOUS
 10
120.892800
 20
154.694400
 11
108.981600
 21
159.633600
  0
LINE
  8
0
  6
DOT
 10
108.981600
 20
153.770400
 11
120.892800
 21
153.770400
  0
HATCH
  5
 30373
100
AcDbEntity
  8
0
 62
   230
100
AcDbHatch
 10
0.000000
 20
0.000000
 30
0.000000
210
0.000000
220
0.000000
230
0.016800
  2
SOLID
 70
     1
 71
     0
 91
     1
 92
     1
 93
     4
 72
     1
 10
120.456000
 20
155.316000
 11
120.859200
 21
155.316000
 72
     1
 10
120.859200
 20
155.316000
 11
120.859200
 21
117.952800
 72
     1
 10
120.859200
 20
117.952800
 11
120.456000
 21
117.952800
 72
     1
 10
120.456000
 20
117.952800
 11
120.456000
 21
155.316000
 97
     0
 75
     0
 76
     1
 98
     1
 10
0.000000
 20
0.000000
  0
POLYLINE
  8
0
  6
CONTINUOUS
 66
     1
 40
0.000000
 41
0.000000
 70
     1
  0
VERTEX
  8
0
  6
CONTINUOUS
 10
120.456000
 20
155.316000
  0
VERTEX
  8
0
  6
CONTINUOUS
 10
120.859200
 20
155.316000
  0
VERTEX
  8
0
  6
CONTINUOUS
 10
120.859200
 20
117.952800
  0
VERTEX
  8
0
  6
CONTINUOUS
 10
120.456000
 20
117.952800
  0
SEQEND
  8
0
  0
HATCH
  5
 30374
100
AcDbEntity
  8
0
 62
   230
100
AcDbHatch
 10
0.000000
 20
0.000000
 30
0.000000
210
0.000000
220
0.000000
230
0.016800
  2
SOLID
 70
     1
 71
     0
 91
     1
 92
     1
 93
     4
 72
     1
 10
108.595200
 20
168.470400
 11
123.144000
 21
168.470400
 72
     1
 10
123.144000
 20
168.470400
 11
123.144000
 21
168.067200
 72
     1
 10
123.144000
 20
168.067200
 11
108.595200
 21
168.067200
 72
     1
 10
108.595200
 20
168.067200
 11
108.595200
 21
168.470400
 97
     0
 75
     0
 76
     1
 98
     1
 10
0.000000
 20
0.000000
  0
POLYLINE
  8
0
  6
CONTINUOUS
 66
     1
 40
0.000000
 41
0.000000
 70
     1
  0
VERTEX
  8
0
  6
CONTINUOUS
 10
108.595200
 20
168.470400
  0
VERTEX
  8
0
  6
CONTINUOUS
 10
123.144000
 20
168.470400
  0
VERTEX
  8
0
  6
CONTINUOUS
 10
123.144000
 20
168.067200
  0
VERTEX
  8
0
  6
CONTINUOUS
 10
108.595200
 20
168.067200
  0
SEQEND
  8
0
  0
HATCH
  5
 30375
100
AcDbEntity
  8
0
 62
   230
100
AcDbHatch
 10
0.000000
 20
0.000000
 30
0.000000
210
0.000000
220
0.000000
230
0.016800
  2
SOLID
 70
     1
 71
     0
 91
     1
 92
     1
 93
     4
 72
     1
 10
120.456000
 20
155.719200
 11
123.144000
 21
155.719200
 72
     1
 10
123.144000
 20
155.719200
 11
123.144000
 21
155.316000
 72
     1
 10
123.144000
 20
155.316000
 11
120.456000
 21
155.316000
 72
     1
 10
120.456000
 20
155.316000
 11
120.456000
 21
155.719200
 97
     0
 75
     0
 76
     1
 98
     1
 10
0.000000
 20
0.000000
  0
POLYLINE
  8
0
  6
CONTINUOUS
 66
     1
 40
0.000000
 41
0.000000
 70
     1
  0
VERTEX
  8
0
  6
CONTINUOUS
 10
120.456000
 20
155.719200
  0
VERTEX
  8
0
  6
CONTINUOUS
 10
123.144000
 20
155.719200
  0
VERTEX
  8
0
  6
CONTINUOUS
 10
123.144000
 20
155.316000
  0
VERTEX
  8
0
  6
CONTINUOUS
 10
120.456000
 20
155.316000
  0
SEQEND
  8
0
  0
HATCH
  5
 30376
100
AcDbEntity
  8
0
 62
   136
100
AcDbHatch
 10
0.000000
 20
0.000000
 30
0.000000
210
0.000000
220
0.000000
230
0.016800
  2
SOLID
 70
     1
 71
     0
 91
     1
 92
     1
 93
     4
 72
     1
 10
313.101600
 20
168.352800
 11
315.504000
 21
168.352800
 72
     1
 10
315.504000
 20
168.352800
 11
315.504000
 21
115.752000
 72
     1
 10
315.504000
 20
115.752000
 11
313.101600
 21
115.752000
 72
     1
 10
313.101600
 20
115.752000
 11
313.101600
 21
168.352800
 97
     0
 75
     0
 76
     1
 98
     1
 10
0.000000
 20
0.000000
  0
POLYLINE
  8
0
  6
CONTINUOUS
 66
     1
 40
0.201600
 41
0.201600
 70
     1
  0
VERTEX
  8
0
  6
CONTINUOUS
 10
313.101600
 20
168.352800
  0
VERTEX
  8
0
  6
CONTINUOUS
 10
315.504000
 20
168.352800
  0
VERTEX
  8
0
  6
CONTINUOUS
 10
315.504000
 20
115.752000
  0
VERTEX
  8
0
  6
CONTINUOUS
 10
313.101600
 20
115.752000
  0
SEQEND
  8
0
  0
HATCH
  5
 30377
100
AcDbEntity
  8
0
 62
    52
100
AcDbHatch
 10
0.000000
 20
0.000000
 30
0.000000
210
0.000000
220
0.000000
230
0.016800
  2
SOLID
 70
     1
 71
     0
 91
     1
 92
     1
 93
     4
 72
     1
 10
312.614400
 20
117.835200
 11
312.614400
 21
121.027200
 72
     1
 10
312.614400
 20
121.027200
 11
301.140000
 21
121.027200
 72
     1
 10
301.140000
 20
121.027200
 11
301.140000
 21
117.835200
 72
     1
 10
301.140000
 20
117.835200
 11
312.614400
 21
117.835200
 97
     0
 75
     0
 76
     1
 98
     1
 10
0.000000
 20
0.000000
  0
POLYLINE
  8
0
  6
CONTINUOUS
 66
     1
 40
0.000000
 41
0.000000
 70
     1
  0
VERTEX
  8
0
  6
CONTINUOUS
 10
312.614400
 20
117.835200
  0
VERTEX
  8
0
  6
CONTINUOUS
 10
312.614400
 20
121.027200
  0
VERTEX
  8
0
  6
CONTINUOUS
 10
301.140000
 20
121.027200
  0
VERTEX
  8
0
  6
CONTINUOUS
 10
301.140000
 20
117.835200
  0
SEQEND
  8
0
  0
HATCH
  5
 30378
100
AcDbEntity
  8
0
 62
    52
100
AcDbHatch
 10
0.000000
 20
0.000000
 30
0.000000
210
0.000000
220
0.000000
230
0.016800
  2
SOLID
 70
     1
 71
     0
 91
     1
 92
     1
 93
     4
 72
     1
 10
312.614400
 20
120.825600
 11
312.614400
 21
124.034400
 72
     1
 10
312.614400
 20
124.034400
 11
301.140000
 21
124.034400
 72
     1
 10
301.140000
 20
124.034400
 11
301.140000
 21
120.825600
 72
     1
 10
301.140000
 20
120.825600
 11
312.614400
 21
120.825600
 97
     0
 75
     0
 76
     1
 98
     1
 10
0.000000
 20
0.000000
  0
POLYLINE
  8
0
  6
CONTINUOUS
 66
     1
 40
0.000000
 41
0.000000
 70
     1
  0
VERTEX
  8
0
  6
CONTINUOUS
 10
312.614400
 20
120.825600
  0
VERTEX
  8
0
  6
CONTINUOUS
 10
312.614400
 20
124.034400
  0
VERTEX
  8
0
  6
CONTINUOUS
 10
301.140000
 20
124.034400
  0
VERTEX
  8
0
  6
CONTINUOUS
 10
301.140000
 20
120.825600
  0
SEQEND
  8
0
  0
HATCH
  5
 30379
100
AcDbEntity
  8
0
 62
    52
100
AcDbHatch
 10
0.000000
 20
0.000000
 30
0.000000
210
0.000000
220
0.000000
230
0.016800
  2
SOLID
 70
     1
 71
     0
 91
     1
 92
     1
 93
     4
 72
     1
 10
312.614400
 20
123.832800
 11
312.614400
 21
127.024800
 72
     1
 10
312.614400
 20
127.024800
 11
301.140000
 21
127.024800
 72
     1
 10
301.140000
 20
127.024800
 11
301.140000
 21
123.832800
 72
     1
 10
301.140000
 20
123.832800
 11
312.614400
 21
123.832800
 97
     0
 75
     0
 76
     1
 98
     1
 10
0.000000
 20
0.000000
  0
POLYLINE
  8
0
  6
CONTINUOUS
 66
     1
 40
0.000000
 41
0.000000
 70
     1
  0
VERTEX
  8
0
  6
CONTINUOUS
 10
312.614400
 20
123.832800
  0
VERTEX
  8
0
  6
CONTINUOUS
 10
312.614400
 20
127.024800
  0
VERTEX
  8
0
  6
CONTINUOUS
 10
301.140000
 20
127.024800
  0
VERTEX
  8
0
  6
CONTINUOUS
 10
301.140000
 20
123.832800
  0
SEQEND
  8
0
  0
HATCH
  5
 30380
100
AcDbEntity
  8
0
 62
    52
100
AcDbHatch
 10
0.000000
 20
0.000000
 30
0.000000
210
0.000000
220
0.000000
230
0.016800
  2
SOLID
 70
     1
 71
     0
 91
     1
 92
     1
 93
     4
 72
     1
 10
312.614400
 20
126.823200
 11
312.614400
 21
130.032000
 72
     1
 10
312.614400
 20
130.032000
 11
301.140000
 21
130.032000
 72
     1
 10
301.140000
 20
130.032000
 11
301.140000
 21
126.823200
 72
     1
 10
301.140000
 20
126.823200
 11
312.614400
 21
126.823200
 97
     0
 75
     0
 76
     1
 98
     1
 10
0.000000
 20
0.000000
  0
POLYLINE
  8
0
  6
CONTINUOUS
 66
     1
 40
0.000000
 41
0.000000
 70
     1
  0
VERTEX
  8
0
  6
CONTINUOUS
 10
312.614400
 20
126.823200
  0
VERTEX
  8
0
  6
CONTINUOUS
 10
312.614400
 20
130.032000
  0
VERTEX
  8
0
  6
CONTINUOUS
 10
301.140000
 20
130.032000
  0
VERTEX
  8
0
  6
CONTINUOUS
 10
301.140000
 20
126.823200
  0
SEQEND
  8
0
  0
HATCH
  5
 30381
100
AcDbEntity
  8
0
 62
    52
100
AcDbHatch
 10
0.000000
 20
0.000000
 30
0.000000
210
0.000000
220
0.000000
230
0.016800
  2
SOLID
 70
     1
 71
     0
 91
     1
 92
     1
 93
     4
 72
     1
 10
312.614400
 20
129.830400
 11
312.614400
 21
133.039200
 72
     1
 10
312.614400
 20
133.039200
 11
301.140000
 21
133.039200
 72
     1
 10
301.140000
 20
133.039200
 11
301.140000
 21
129.830400
 72
     1
 10
301.140000
 20
129.830400
 11
312.614400
 21
129.830400
 97
     0
 75
     0
 76
     1
 98
     1
 10
0.000000
 20
0.000000
  0
POLYLINE
  8
0
  6
CONTINUOUS
 66
     1
 40
0.000000
 41
0.000000
 70
     1
  0
VERTEX
  8
0
  6
CONTINUOUS
 10
312.614400
 20
129.830400
  0
VERTEX
  8
0
  6
CONTINUOUS
 10
312.614400
 20
133.039200
  0
VERTEX
  8
0
  6
CONTINUOUS
 10
301.140000
 20
133.039200
  0
VERTEX
  8
0
  6
CONTINUOUS
 10
301.140000
 20
129.830400
  0
SEQEND
  8
0
  0
HATCH
  5
 30382
100
AcDbEntity
  8
0
 62
    52
100
AcDbHatch
 10
0.000000
 20
0.000000
 30
0.000000
210
0.000000
220
0.000000
230
0.016800
  2
SOLID
 70
     1
 71
     0
 91
     1
 92
     1
 93
     4
 72
     1
 10
312.614400
 20
132.837600
 11
312.614400
 21
136.029600
 72
     1
 10
312.614400
 20
136.029600
 11
301.140000
 21
136.029600
 72
     1
 10
301.140000
 20
136.029600
 11
301.140000
 21
132.837600
 72
     1
 10
301.140000
 20
132.837600
 11
312.614400
 21
132.837600
 97
     0
 75
     0
 76
     1
 98
     1
 10
0.000000
 20
0.000000
  0
POLYLINE
  8
0
  6
CONTINUOUS
 66
     1
 40
0.000000
 41
0.000000
 70
     1
  0
VERTEX
  8
0
  6
CONTINUOUS
 10
312.614400
 20
132.837600
  0
VERTEX
  8
0
  6
CONTINUOUS
 10
312.614400
 20
136.029600
  0
VERTEX
  8
0
  6
CONTINUOUS
 10
301.140000
 20
136.029600
  0
VERTEX
  8
0
  6
CONTINUOUS
 10
301.140000
 20
132.837600
  0
SEQEND
  8
0
  0
HATCH
  5
 30383
100
AcDbEntity
  8
0
 62
    52
100
AcDbHatch
 10
0.000000
 20
0.000000
 30
0.000000
210
0.000000
220
0.000000
230
0.016800
  2
SOLID
 70
     1
 71
     0
 91
     1
 92
     1
 93
     4
 72
     1
 10
312.614400
 20
135.828000
 11
312.614400
 21
139.036800
 72
     1
 10
312.614400
 20
139.036800
 11
301.140000
 21
139.036800
 72
     1
 10
301.140000
 20
139.036800
 11
301.140000
 21
135.828000
 72
     1
 10
301.140000
 20
135.828000
 11
312.614400
 21
135.828000
 97
     0
 75
     0
 76
     1
 98
     1
 10
0.000000
 20
0.000000
  0
POLYLINE
  8
0
  6
CONTINUOUS
 66
     1
 40
0.000000
 41
0.000000
 70
     1
  0
VERTEX
  8
0
  6
CONTINUOUS
 10
312.614400
 20
135.828000
  0
VERTEX
  8
0
  6
CONTINUOUS
 10
312.614400
 20
139.036800
  0
VERTEX
  8
0
  6
CONTINUOUS
 10
301.140000
 20
139.036800
  0
VERTEX
  8
0
  6
CONTINUOUS
 10
301.140000
 20
135.828000
  0
SEQEND
  8
0
  0
HATCH
  5
 30384
100
AcDbEntity
  8
0
 62
    52
100
AcDbHatch
 10
0.000000
 20
0.000000
 30
0.000000
210
0.000000
220
0.000000
230
0.016800
  2
SOLID
 70
     1
 71
     0
 91
     1
 92
     1
 93
     4
 72
     1
 10
312.614400
 20
138.835200
 11
312.614400
 21
142.027200
 72
     1
 10
312.614400
 20
142.027200
 11
301.140000
 21
142.027200
 72
     1
 10
301.140000
 20
142.027200
 11
301.140000
 21
138.835200
 72
     1
 10
301.140000
 20
138.835200
 11
312.614400
 21
138.835200
 97
     0
 75
     0
 76
     1
 98
     1
 10
0.000000
 20
0.000000
  0
POLYLINE
  8
0
  6
CONTINUOUS
 66
     1
 40
0.000000
 41
0.000000
 70
     1
  0
VERTEX
  8
0
  6
CONTINUOUS
 10
312.614400
 20
138.835200
  0
VERTEX
  8
0
  6
CONTINUOUS
 10
312.614400
 20
142.027200
  0
VERTEX
  8
0
  6
CONTINUOUS
 10
301.140000
 20
142.027200
  0
VERTEX
  8
0
  6
CONTINUOUS
 10
301.140000
 20
138.835200
  0
SEQEND
  8
0
  0
HATCH
  5
 30385
100
AcDbEntity
  8
0
 62
    52
100
AcDbHatch
 10
0.000000
 20
0.000000
 30
0.000000
210
0.000000
220
0.000000
230
0.016800
  2
SOLID
 70
     1
 71
     0
 91
     1
 92
     1
 93
     4
 72
     1
 10
312.614400
 20
141.825600
 11
312.614400
 21
145.034400
 72
     1
 10
312.614400
 20
145.034400
 11
301.140000
 21
145.034400
 72
     1
 10
301.140000
 20
145.034400
 11
301.140000
 21
141.825600
 72
     1
 10
301.140000
 20
141.825600
 11
312.614400
 21
141.825600
 97
     0
 75
     0
 76
     1
 98
     1
 10
0.000000
 20
0.000000
  0
POLYLINE
  8
0
  6
CONTINUOUS
 66
     1
 40
0.000000
 41
0.000000
 70
     1
  0
VERTEX
  8
0
  6
CONTINUOUS
 10
312.614400
 20
141.825600
  0
VERTEX
  8
0
  6
CONTINUOUS
 10
312.614400
 20
145.034400
  0
VERTEX
  8
0
  6
CONTINUOUS
 10
301.140000
 20
145.034400
  0
VERTEX
  8
0
  6
CONTINUOUS
 10
301.140000
 20
141.825600
  0
SEQEND
  8
0
  0
HATCH
  5
 30386
100
AcDbEntity
  8
0
 62
    52
100
AcDbHatch
 10
0.000000
 20
0.000000
 30
0.000000
210
0.000000
220
0.000000
230
0.016800
  2
SOLID
 70
     1
 71
     0
 91
     1
 92
     1
 93
     4
 72
     1
 10
312.614400
 20
144.832800
 11
312.614400
 21
148.024800
 72
     1
 10
312.614400
 20
148.024800
 11
301.140000
 21
148.024800
 72
     1
 10
301.140000
 20
148.024800
 11
301.140000
 21
144.832800
 72
     1
 10
301.140000
 20
144.832800
 11
312.614400
 21
144.832800
 97
     0
 75
     0
 76
     1
 98
     1
 10
0.000000
 20
0.000000
  0
POLYLINE
  8
0
  6
CONTINUOUS
 66
     1
 40
0.000000
 41
0.000000
 70
     1
  0
VERTEX
  8
0
  6
CONTINUOUS
 10
312.614400
 20
144.832800
  0
VERTEX
  8
0
  6
CONTINUOUS
 10
312.614400
 20
148.024800
  0
VERTEX
  8
0
  6
CONTINUOUS
 10
301.140000
 20
148.024800
  0
VERTEX
  8
0
  6
CONTINUOUS
 10
301.140000
 20
144.832800
  0
SEQEND
  8
0
  0
HATCH
  5
 30387
100
AcDbEntity
  8
0
 62
    52
100
AcDbHatch
 10
0.000000
 20
0.000000
 30
0.000000
210
0.000000
220
0.000000
230
0.016800
  2
SOLID
 70
     1
 71
     0
 91
     1
 92
     1
 93
     4
 72
     1
 10
312.614400
 20
147.823200
 11
312.614400
 21
151.032000
 72
     1
 10
312.614400
 20
151.032000
 11
301.140000
 21
151.032000
 72
     1
 10
301.140000
 20
151.032000
 11
301.140000
 21
147.823200
 72
     1
 10
301.140000
 20
147.823200
 11
312.614400
 21
147.823200
 97
     0
 75
     0
 76
     1
 98
     1
 10
0.000000
 20
0.000000
  0
POLYLINE
  8
0
  6
CONTINUOUS
 66
     1
 40
0.000000
 41
0.000000
 70
     1
  0
VERTEX
  8
0
  6
CONTINUOUS
 10
312.614400
 20
147.823200
  0
VERTEX
  8
0
  6
CONTINUOUS
 10
312.614400
 20
151.032000
  0
VERTEX
  8
0
  6
CONTINUOUS
 10
301.140000
 20
151.032000
  0
VERTEX
  8
0
  6
CONTINUOUS
 10
301.140000
 20
147.823200
  0
SEQEND
  8
0
  0
HATCH
  5
 30388
100
AcDbEntity
  8
0
 62
    52
100
AcDbHatch
 10
0.000000
 20
0.000000
 30
0.000000
210
0.000000
220
0.000000
230
0.016800
  2
SOLID
 70
     1
 71
     0
 91
     1
 92
     1
 93
     4
 72
     1
 10
312.614400
 20
150.830400
 11
312.614400
 21
154.039200
 72
     1
 10
312.614400
 20
154.039200
 11
301.140000
 21
154.039200
 72
     1
 10
301.140000
 20
154.039200
 11
301.140000
 21
150.830400
 72
     1
 10
301.140000
 20
150.830400
 11
312.614400
 21
150.830400
 97
     0
 75
     0
 76
     1
 98
     1
 10
0.000000
 20
0.000000
  0
POLYLINE
  8
0
  6
CONTINUOUS
 66
     1
 40
0.000000
 41
0.000000
 70
     1
  0
VERTEX
  8
0
  6
CONTINUOUS
 10
312.614400
 20
150.830400
  0
VERTEX
  8
0
  6
CONTINUOUS
 10
312.614400
 20
154.039200
  0
VERTEX
  8
0
  6
CONTINUOUS
 10
301.140000
 20
154.039200
  0
VERTEX
  8
0
  6
CONTINUOUS
 10
301.140000
 20
150.830400
  0
SEQEND
  8
0
  0
HATCH
  5
 30389
100
AcDbEntity
  8
0
 62
   230
100
AcDbHatch
 10
0.000000
 20
0.000000
 30
0.000000
210
0.000000
220
0.000000
230
0.016800
  2
SOLID
 70
     1
 71
     0
 91
     1
 92
     1
 93
     4
 72
     1
 10
300.753600
 20
168.084000
 11
301.140000
 21
168.084000
 72
     1
 10
301.140000
 20
168.084000
 11
301.140000
 21
117.952800
 72
     1
 10
301.140000
 20
117.952800
 11
300.753600
 21
117.952800
 72
     1
 10
300.753600
 20
117.952800
 11
300.753600
 21
168.084000
 97
     0
 75
     0
 76
     1
 98
     1
 10
0.000000
 20
0.000000
  0
POLYLINE
  8
0
  6
CONTINUOUS
 66
     1
 40
0.000000
 41
0.000000
 70
     1
  0
VERTEX
  8
0
  6
CONTINUOUS
 10
300.753600
 20
168.084000
  0
VERTEX
  8
0
  6
CONTINUOUS
 10
301.140000
 20
168.084000
  0
VERTEX
  8
0
  6
CONTINUOUS
 10
301.140000
 20
117.952800
  0
VERTEX
  8
0
  6
CONTINUOUS
 10
300.753600
 20
117.952800
  0
SEQEND
  8
0
  0
HATCH
  5
 30390
100
AcDbEntity
  8
0
 62
   231
100
AcDbHatch
 10
0.000000
 20
0.000000
 30
0.000000
210
0.000000
220
0.000000
230
0.016800
  2
SOLID
 70
     1
 71
     0
 91
     1
 92
     1
 93
     6
 72
     1
 10
301.140000
 20
168.067200
 11
301.140000
 21
153.770400
 72
     1
 10
301.140000
 20
153.770400
 11
313.051200
 21
153.770400
 72
     1
 10
313.051200
 20
153.770400
 11
313.051200
 21
155.316000
 72
     1
 10
313.051200
 20
155.316000
 11
315.302400
 21
155.316000
 72
     1
 10
315.302400
 20
155.316000
 11
315.302400
 21
168.067200
 72
     1
 10
315.302400
 20
168.067200
 11
301.140000
 21
168.067200
 97
     0
 75
     0
 76
     1
 98
     1
 10
0.000000
 20
0.000000
  0
POLYLINE
  8
0
  6
CONTINUOUS
 66
     1
 40
0.000000
 41
0.000000
 70
     1
  0
VERTEX
  8
0
  6
CONTINUOUS
 10
301.140000
 20
168.067200
  0
VERTEX
  8
0
  6
CONTINUOUS
 10
301.140000
 20
153.770400
  0
VERTEX
  8
0
  6
CONTINUOUS
 10
313.051200
 20
153.770400
  0
VERTEX
  8
0
  6
CONTINUOUS
 10
313.051200
 20
155.316000
  0
VERTEX
  8
0
  6
CONTINUOUS
 10
315.302400
 20
155.316000
  0
VERTEX
  8
0
  6
CONTINUOUS
 10
315.302400
 20
168.067200
  0
SEQEND
  8
0
  0
LINE
  8
0
  6
DOT
 10
315.302400
 20
168.067200
 11
315.302400
 21
155.316000
  0
LINE
  8
0
  6
DOT
 10
309.674400
 20
168.067200
 11
314.949600
 21
155.316000
  0
LINE
  8
0
  6
CONTINUOUS
 10
314.664000
 20
155.316000
 11
309.388800
 21
168.067200
  0
LINE
  8
0
  6
CONTINUOUS
 10
301.140000
 20
167.916000
 11
313.756800
 21
155.316000
  0
LINE
  8
0
  6
DOT
 10
314.143200
 20
155.316000
 11
301.375200
 21
168.067200
  0
LINE
  8
0
  6
DOT
 10
301.140000
 20
154.022400
 11
313.051200
 21
154.022400
  0
LINE
  8
0
  6
DOT
 10
301.140000
 20
159.919200
 11
313.051200
 21
154.980000
  0
LINE
  8
0
  6
CONTINUOUS
 10
313.051200
 20
154.694400
 11
301.140000
 21
159.633600
  0
LINE
  8
0
  6
DOT
 10
301.140000
 20
153.770400
 11
313.051200
 21
153.770400
  0
HATCH
  5
 30391
100
AcDbEntity
  8
0
 62
   230
100
AcDbHatch
 10
0.000000
 20
0.000000
 30
0.000000
210
0.000000
220
0.000000
230
0.016800
  2
SOLID
 70
     1
 71
     0
 91
     1
 92
     1
 93
     4
 72
     1
 10
312.614400
 20
155.316000
 11
313.017600
 21
155.316000
 72
     1
 10
313.017600
 20
155.316000
 11
313.017600
 21
117.952800
 72
     1
 10
313.017600
 20
117.952800
 11
312.614400
 21
117.952800
 72
     1
 10
312.614400
 20
117.952800
 11
312.614400
 21
155.316000
 97
     0
 75
     0
 76
     1
 98
     1
 10
0.000000
 20
0.000000
  0
POLYLINE
  8
0
  6
CONTINUOUS
 66
     1
 40
0.000000
 41
0.000000
 70
     1
  0
VERTEX
  8
0
  6
CONTINUOUS
 10
312.614400
 20
155.316000
  0
VERTEX
  8
0
  6
CONTINUOUS
 10
313.017600
 20
155.316000
  0
VERTEX
  8
0
  6
CONTINUOUS
 10
313.017600
 20
117.952800
  0
VERTEX
  8
0
  6
CONTINUOUS
 10
312.614400
 20
117.952800
  0
SEQEND
  8
0
  0
HATCH
  5
 30392
100
AcDbEntity
  8
0
 62
   230
100
AcDbHatch
 10
0.000000
 20
0.000000
 30
0.000000
210
0.000000
220
0.000000
230
0.016800
  2
SOLID
 70
     1
 71
     0
 91
     1
 92
     1
 93
     4
 72
     1
 10
300.753600
 20
168.470400
 11
315.302400
 21
168.470400
 72
     1
 10
315.302400
 20
168.470400
 11
315.302400
 21
168.067200
 72
     1
 10
315.302400
 20
168.067200
 11
300.753600
 21
168.067200
 72
     1
 10
300.753600
 20
168.067200
 11
300.753600
 21
168.470400
 97
     0
 75
     0
 76
     1
 98
     1
 10
0.000000
 20
0.000000
  0
POLYLINE
  8
0
  6
CONTINUOUS
 66
     1
 40
0.000000
 41
0.000000
 70
     1
  0
VERTEX
  8
0
  6
CONTINUOUS
 10
300.753600
 20
168.470400
  0
VERTEX
  8
0
  6
CONTINUOUS
 10
315.302400
 20
168.470400
  0
VERTEX
  8
0
  6
CONTINUOUS
 10
315.302400
 20
168.067200
  0
VERTEX
  8
0
  6
CONTINUOUS
 10
300.753600
 20
168.067200
  0
SEQEND
  8
0
  0
HATCH
  5
 30393
100
AcDbEntity
  8
0
 62
   230
100
AcDbHatch
 10
0.000000
 20
0.000000
 30
0.000000
210
0.000000
220
0.000000
230
0.016800
  2
SOLID
 70
     1
 71
     0
 91
     1
 92
     1
 93
     4
 72
     1
 10
312.614400
 20
155.719200
 11
315.302400
 21
155.719200
 72
     1
 10
315.302400
 20
155.719200
 11
315.302400
 21
155.316000
 72
     1
 10
315.302400
 20
155.316000
 11
312.614400
 21
155.316000
 72
     1
 10
312.614400
 20
155.316000
 11
312.614400
 21
155.719200
 97
     0
 75
     0
 76
     1
 98
     1
 10
0.000000
 20
0.000000
  0
POLYLINE
  8
0
  6
CONTINUOUS
 66
     1
 40
0.000000
 41
0.000000
 70
     1
  0
VERTEX
  8
0
  6
CONTINUOUS
 10
312.614400
 20
155.719200
  0
VERTEX
  8
0
  6
CONTINUOUS
 10
315.302400
 20
155.719200
  0
VERTEX
  8
0
  6
CONTINUOUS
 10
315.302400
 20
155.316000
  0
VERTEX
  8
0
  6
CONTINUOUS
 10
312.614400
 20
155.316000
  0
SEQEND
  8
0
  0
POLYLINE
  8
0
 62
   176
  6
HIDDEN
 66
     1
 40
0.100800
 41
0.100800
 70
     1
  0
VERTEX
  8
0
 62
   176
  6
HIDDEN
 10
254.805600
 20
164.942400
  0
VERTEX
  8
0
 62
   176
  6
HIDDEN
 10
254.805600
 20
58.867200
  0
VERTEX
  8
0
 62
   176
  6
HIDDEN
 10
280.963200
 20
58.867200
  0
VERTEX
  8
0
 62
   176
  6
HIDDEN
 10
280.963200
 20
82.605600
  0
VERTEX
  8
0
 62
   176
  6
HIDDEN
 10
297.175200
 20
82.605600
  0
VERTEX
  8
0
 62
   176
  6
HIDDEN
 10
297.175200
 20
100.548000
  0
VERTEX
  8
0
 62
   176
  6
HIDDEN
 10
331.884000
 20
100.548000
  0
VERTEX
  8
0
 62
   176
  6
HIDDEN
 10
331.884000
 20
118.070400
  0
VERTEX
  8
0
 62
   176
  6
HIDDEN
 10
339.427200
 20
118.070400
  0
VERTEX
  8
0
 62
   176
  6
HIDDEN
 10
339.427200
 20
129.948000
  0
VERTEX
  8
0
 62
   176
  6
HIDDEN
 10
336.218400
 20
129.948000
  0
VERTEX
  8
0
 62
   176
  6
HIDDEN
 10
336.218400
 20
164.942400
  0
SEQEND
  8
0
  0
POLYLINE
  8
0
 62
   176
  6
CONTINUOUS
 66
     1
 40
0.100800
 41
0.100800
 70
     1
  0
VERTEX
  8
0
 62
   176
  6
CONTINUOUS
 10
254.805600
 20
164.959200
  0
VERTEX
  8
0
 62
   176
  6
CONTINUOUS
 10
254.805600
 20
58.867200
  0
VERTEX
  8
0
 62
   176
  6
CONTINUOUS
 10
280.963200
 20
58.867200
  0
VERTEX
  8
0
 62
   176
  6
CONTINUOUS
 10
280.963200
 20
82.605600
  0
VERTEX
  8
0
 62
   176
  6
CONTINUOUS
 10
297.175200
 20
82.605600
  0
VERTEX
  8
0
 62
   176
  6
CONTINUOUS
 10
297.175200
 20
100.548000
  0
VERTEX
  8
0
 62
   176
  6
CONTINUOUS
 10
331.884000
 20
100.548000
  0
VERTEX
  8
0
 62
   176
  6
CONTINUOUS
 10
331.884000
 20
118.070400
  0
VERTEX
  8
0
 62
   176
  6
CONTINUOUS
 10
339.427200
 20
118.070400
  0
VERTEX
  8
0
 62
   176
  6
CONTINUOUS
 10
339.427200
 20
129.948000
  0
VERTEX
  8
0
 62
   176
  6
CONTINUOUS
 10
336.218400
 20
129.948000
  0
VERTEX
  8
0
 62
   176
  6
CONTINUOUS
 10
336.218400
 20
164.959200
  0
VERTEX
  8
0
 62
   176
  6
CONTINUOUS
 10
327.650400
 20
164.959200
  0
VERTEX
  8
0
 62
   176
  6
CONTINUOUS
 10
327.650400
 20
168.050400
  0
VERTEX
  8
0
 62
   176
  6
CONTINUOUS
 10
299.460000
 20
168.050400
  0
VERTEX
  8
0
 62
   176
  6
CONTINUOUS
 10
299.460000
 20
164.959200
  0
SEQEND
  8
0
  0
HATCH
  5
 30394
100
AcDbEntity
  8
0
 62
    36
100
AcDbHatch
 10
0.000000
 20
0.000000
 30
0.000000
210
0.000000
220
0.000000
230
0.016800
  2
SOLID
 70
     1
 71
     0
 91
     1
 92
     1
 93
     4
 72
     1
 10
292.924800
 20
113.332800
 11
293.328000
 21
113.332800
 72
     1
 10
293.328000
 20
113.332800
 11
293.328000
 21
123.530400
 72
     1
 10
293.328000
 20
123.530400
 11
292.924800
 21
123.530400
 72
     1
 10
292.924800
 20
123.530400
 11
292.924800
 21
113.332800
 97
     0
 75
     0
 76
     1
 98
     1
 10
0.000000
 20
0.000000
  0
POLYLINE
  8
0
  6
CONTINUOUS
 66
     1
 40
0.000000
 41
0.000000
 70
     1
  0
VERTEX
  8
0
  6
CONTINUOUS
 10
292.924800
 20
113.332800
  0
VERTEX
  8
0
  6
CONTINUOUS
 10
293.328000
 20
113.332800
  0
VERTEX
  8
0
  6
CONTINUOUS
 10
293.328000
 20
123.530400
  0
VERTEX
  8
0
  6
CONTINUOUS
 10
292.924800
 20
123.530400
  0
SEQEND
  8
0
  0
HATCH
  5
 30395
100
AcDbEntity
  8
0
 62
    36
100
AcDbHatch
 10
0.000000
 20
0.000000
 30
0.000000
210
0.000000
220
0.000000
230
0.016800
  2
SOLID
 70
     1
 71
     0
 91
     1
 92
     1
 93
     4
 72
     1
 10
306.600000
 20
112.929600
 11
306.196800
 21
112.929600
 72
     1
 10
306.196800
 20
112.929600
 11
306.196800
 21
102.732000
 72
     1
 10
306.196800
 20
102.732000
 11
306.600000
 21
102.732000
 72
     1
 10
306.600000
 20
102.732000
 11
306.600000
 21
112.929600
 97
     0
 75
     0
 76
     1
 98
     1
 10
0.000000
 20
0.000000
  0
POLYLINE
  8
0
  6
CONTINUOUS
 66
     1
 40
0.000000
 41
0.000000
 70
     1
  0
VERTEX
  8
0
  6
CONTINUOUS
 10
306.600000
 20
112.929600
  0
VERTEX
  8
0
  6
CONTINUOUS
 10
306.196800
 20
112.929600
  0
VERTEX
  8
0
  6
CONTINUOUS
 10
306.196800
 20
102.732000
  0
VERTEX
  8
0
  6
CONTINUOUS
 10
306.600000
 20
102.732000
  0
SEQEND
  8
0
  0
HATCH
  5
 30396
100
AcDbEntity
  8
0
 62
    36
100
AcDbHatch
 10
0.000000
 20
0.000000
 30
0.000000
210
0.000000
220
0.000000
230
0.016800
  2
SOLID
 70
     1
 71
     0
 91
     1
 92
     1
 93
     4
 72
     1
 10
307.036800
 20
117.633600
 11
307.036800
 21
117.230400
 72
     1
 10
307.036800
 20
117.230400
 11
317.234400
 21
117.230400
 72
     1
 10
317.234400
 20
117.230400
 11
317.234400
 21
117.633600
 72
     1
 10
317.234400
 20
117.633600
 11
307.036800
 21
117.633600
 97
     0
 75
     0
 76
     1
 98
     1
 10
0.000000
 20
0.000000
  0
POLYLINE
  8
0
  6
CONTINUOUS
 66
     1
 40
0.000000
 41
0.000000
 70
     1
  0
VERTEX
  8
0
  6
CONTINUOUS
 10
307.036800
 20
117.633600
  0
VERTEX
  8
0
  6
CONTINUOUS
 10
307.036800
 20
117.230400
  0
VERTEX
  8
0
  6
CONTINUOUS
 10
317.234400
 20
117.230400
  0
VERTEX
  8
0
  6
CONTINUOUS
 10
317.234400
 20
117.633600
  0
SEQEND
  8
0
  0
HATCH
  5
 30397
100
AcDbEntity
  8
0
 62
   230
100
AcDbHatch
 10
0.000000
 20
0.000000
 30
0.000000
210
0.000000
220
0.000000
230
0.016800
  2
SOLID
 70
     1
 71
     0
 91
     1
 92
     1
 93
     4
 72
     1
 10
331.816800
 20
118.087200
 11
317.301600
 21
118.087200
 72
     1
 10
317.301600
 20
118.087200
 11
317.301600
 21
116.827200
 72
     1
 10
317.301600
 20
116.827200
 11
331.816800
 21
116.827200
 72
     1
 10
331.816800
 20
116.827200
 11
331.816800
 21
118.087200
 97
     0
 75
     0
 76
     1
 98
     1
 10
0.000000
 20
0.000000
  0
POLYLINE
  8
0
  6
CONTINUOUS
 66
     1
 40
0.000000
 41
0.000000
 70
     1
  0
VERTEX
  8
0
  6
CONTINUOUS
 10
331.816800
 20
118.087200
  0
VERTEX
  8
0
  6
CONTINUOUS
 10
317.301600
 20
118.087200
  0
VERTEX
  8
0
  6
CONTINUOUS
 10
317.301600
 20
116.827200
  0
VERTEX
  8
0
  6
CONTINUOUS
 10
331.816800
 20
116.827200
  0
SEQEND
  8
0
  0
HATCH
  5
 30398
100
AcDbEntity
  8
0
 62
    36
100
AcDbHatch
 10
0.000000
 20
0.000000
 30
0.000000
210
0.000000
220
0.000000
230
0.016800
  2
SOLID
 70
     1
 71
     0
 91
     1
 92
     1
 93
     4
 72
     1
 10
294.957600
 20
112.224000
 11
294.957600
 21
111.837600
 72
     1
 10
294.957600
 20
111.837600
 11
305.172000
 21
111.837600
 72
     1
 10
305.172000
 20
111.837600
 11
305.172000
 21
112.224000
 72
     1
 10
305.172000
 20
112.224000
 11
294.957600
 21
112.224000
 97
     0
 75
     0
 76
     1
 98
     1
 10
0.000000
 20
0.000000
  0
POLYLINE
  8
0
  6
CONTINUOUS
 66
     1
 40
0.000000
 41
0.000000
 70
     1
  0
VERTEX
  8
0
  6
CONTINUOUS
 10
294.957600
 20
112.224000
  0
VERTEX
  8
0
  6
CONTINUOUS
 10
294.957600
 20
111.837600
  0
VERTEX
  8
0
  6
CONTINUOUS
 10
305.172000
 20
111.837600
  0
VERTEX
  8
0
  6
CONTINUOUS
 10
305.172000
 20
112.224000
  0
SEQEND
  8
0
  0
HATCH
  5
 30399
100
AcDbEntity
  8
0
 62
    36
100
AcDbHatch
 10
0.000000
 20
0.000000
 30
0.000000
210
0.000000
220
0.000000
230
0.016800
  2
SOLID
 70
     1
 71
     0
 91
     1
 92
     1
 93
     4
 72
     1
 10
305.222400
 20
111.955200
 11
304.936800
 21
112.240800
 72
     1
 10
304.936800
 20
112.240800
 11
297.712800
 21
105.033600
 72
     1
 10
297.712800
 20
105.033600
 11
297.998400
 21
104.748000
 72
     1
 10
297.998400
 20
104.748000
 11
305.222400
 21
111.955200
 97
     0
 75
     0
 76
     1
 98
     1
 10
0.000000
 20
0.000000
  0
POLYLINE
  8
0
  6
CONTINUOUS
 66
     1
 40
0.000000
 41
0.000000
 70
     1
  0
VERTEX
  8
0
  6
CONTINUOUS
 10
305.222400
 20
111.955200
  0
VERTEX
  8
0
  6
CONTINUOUS
 10
304.936800
 20
112.240800
  0
VERTEX
  8
0
  6
CONTINUOUS
 10
297.712800
 20
105.033600
  0
VERTEX
  8
0
  6
CONTINUOUS
 10
297.998400
 20
104.748000
  0
SEQEND
  8
0
  0
HATCH
  5
 30400
100
AcDbEntity
  8
0
 62
    36
100
AcDbHatch
 10
0.000000
 20
0.000000
 30
0.000000
210
0.000000
220
0.000000
230
0.016800
  2
SOLID
 70
     1
 71
     0
 91
     1
 92
     1
 93
     4
 72
     1
 10
285.717600
 20
116.306400
 11
285.986400
 21
116.020800
 72
     1
 10
285.986400
 20
116.020800
 11
293.210400
 21
123.228000
 72
     1
 10
293.210400
 20
123.228000
 11
292.924800
 21
123.513600
 72
     1
 10
292.924800
 20
123.513600
 11
285.717600
 21
116.306400
 97
     0
 75
     0
 76
     1
 98
     1
 10
0.000000
 20
0.000000
  0
POLYLINE
  8
0
  6
CONTINUOUS
 66
     1
 40
0.000000
 41
0.000000
 70
     1
  0
VERTEX
  8
0
  6
CONTINUOUS
 10
285.717600
 20
116.306400
  0
VERTEX
  8
0
  6
CONTINUOUS
 10
285.986400
 20
116.020800
  0
VERTEX
  8
0
  6
CONTINUOUS
 10
293.210400
 20
123.228000
  0
VERTEX
  8
0
  6
CONTINUOUS
 10
292.924800
 20
123.513600
  0
SEQEND
  8
0
  0
HATCH
  5
 30401
100
AcDbEntity
  8
0
 62
    36
100
AcDbHatch
 10
0.000000
 20
0.000000
 30
0.000000
210
0.000000
220
0.000000
230
0.016800
  2
SOLID
 70
     1
 71
     0
 91
     1
 92
     1
 93
     4
 72
     1
 10
307.272000
 20
117.381600
 11
306.986400
 21
117.096000
 72
     1
 10
306.986400
 20
117.096000
 11
314.210400
 21
109.888800
 72
     1
 10
314.210400
 20
109.888800
 11
314.479200
 21
110.157600
 72
     1
 10
314.479200
 20
110.157600
 11
307.272000
 21
117.381600
 97
     0
 75
     0
 76
     1
 98
     1
 10
0.000000
 20
0.000000
  0
POLYLINE
  8
0
  6
CONTINUOUS
 66
     1
 40
0.000000
 41
0.000000
 70
     1
  0
VERTEX
  8
0
  6
CONTINUOUS
 10
307.272000
 20
117.381600
  0
VERTEX
  8
0
  6
CONTINUOUS
 10
306.986400
 20
117.096000
  0
VERTEX
  8
0
  6
CONTINUOUS
 10
314.210400
 20
109.888800
  0
VERTEX
  8
0
  6
CONTINUOUS
 10
314.479200
 20
110.157600
  0
SEQEND
  8
0
  0
HATCH
  5
 30402
100
AcDbEntity
  8
0
 62
    31
100
AcDbHatch
 10
0.000000
 20
0.000000
 30
0.000000
210
0.000000
220
0.000000
230
0.016800
  2
SOLID
 70
     1
 71
     0
 91
     1
 92
     1
 93
     4
 72
     1
 10
313.740000
 20
131.208000
 11
300.804000
 21
131.208000
 72
     1
 10
300.804000
 20
131.208000
 11
300.804000
 21
129.931200
 72
     1
 10
300.804000
 20
129.931200
 11
313.740000
 21
129.931200
 72
     1
 10
313.740000
 20
129.931200
 11
313.740000
 21
131.208000
 97
     0
 75
     0
 76
     1
 98
     1
 10
0.000000
 20
0.000000
  0
POLYLINE
  8
0
  6
CONTINUOUS
 66
     1
 40
0.000000
 41
0.000000
 70
     1
  0
VERTEX
  8
0
  6
CONTINUOUS
 10
313.740000
 20
131.208000
  0
VERTEX
  8
0
  6
CONTINUOUS
 10
300.804000
 20
131.208000
  0
VERTEX
  8
0
  6
CONTINUOUS
 10
300.804000
 20
129.931200
  0
VERTEX
  8
0
  6
CONTINUOUS
 10
313.740000
 20
129.931200
  0
SEQEND
  8
0
  0
HATCH
  5
 30403
100
AcDbEntity
  8
0
 62
    31
  6
CONTINUOUS
100
AcDbHatch
 10
0.000000
 20
0.000000
 30
0.000000
210
0.000000
220
0.000000
230
0.016800
  2
SOLID
 70
     1
 71
     0
 91
     1
 92
     1
 93
    41
 72
     1
 10
314.008800
 20
153.820800
 11
314.008800
 21
153.957689
 72
     1
 10
314.008800
 20
153.957689
 11
314.008800
 21
154.053511
 72
     1
 10
314.008800
 20
154.053511
 11
314.008800
 21
154.089600
 72
     1
 10
314.008800
 20
154.089600
 11
313.693956
 21
154.089600
 72
     1
 10
313.693956
 20
154.089600
 11
313.382844
 21
154.089600
 72
     1
 10
313.382844
 20
154.089600
 11
313.068000
 21
154.089600
 72
     1
 10
313.068000
 20
154.089600
 11
313.068000
 21
154.053511
 72
     1
 10
313.068000
 20
154.053511
 11
313.068000
 21
153.957689
 72
     1
 10
313.068000
 20
153.957689
 11
313.068000
 21
153.820800
 72
     1
 10
313.068000
 20
153.820800
 11
313.068000
 21
151.676105
 72
     1
 10
313.068000
 20
151.676105
 11
313.068000
 21
149.530653
 72
     1
 10
313.068000
 20
149.530653
 11
313.068000
 21
147.384519
 72
     1
 10
313.068000
 20
147.384519
 11
313.068000
 21
145.237780
 72
     1
 10
313.068000
 20
145.237780
 11
313.068000
 21
143.090510
 72
     1
 10
313.068000
 20
143.090510
 11
313.068000
 21
140.942786
 72
     1
 10
313.068000
 20
140.942786
 11
313.068000
 21
138.794683
 72
     1
 10
313.068000
 20
138.794683
 11
313.068000
 21
136.646277
 72
     1
 10
313.068000
 20
136.646277
 11
313.068000
 21
134.497644
 72
     1
 10
313.068000
 20
134.497644
 11
313.068000
 21
132.348860
 72
     1
 10
313.068000
 20
132.348860
 11
313.068000
 21
130.200000
 72
     1
 10
313.068000
 20
130.200000
 11
313.068000
 21
130.200000
 72
     1
 10
313.068000
 20
130.200000
 11
313.068000
 21
130.063111
 72
     1
 10
313.068000
 20
130.063111
 11
313.068000
 21
129.967289
 72
     1
 10
313.068000
 20
129.967289
 11
313.068000
 21
129.931200
 72
     1
 10
313.068000
 20
129.931200
 11
313.382844
 21
129.931200
 72
     1
 10
313.382844
 20
129.931200
 11
313.693956
 21
129.931200
 72
     1
 10
313.693956
 20
129.931200
 11
314.008800
 21
129.931200
 72
     1
 10
314.008800
 20
129.931200
 11
314.008800
 21
129.967289
 72
     1
 10
314.008800
 20
129.967289
 11
314.008800
 21
130.063111
 72
     1
 10
314.008800
 20
130.063111
 11
314.008800
 21
130.200000
 72
     1
 10
314.008800
 20
130.200000
 11
314.008800
 21
132.348481
 72
     1
 10
314.008800
 20
132.348481
 11
314.008800
 21
134.496281
 72
     1
 10
314.008800
 20
134.496281
 11
314.008800
 21
136.643551
 72
     1
 10
314.008800
 20
136.643551
 11
314.008800
 21
138.790442
 72
     1
 10
314.008800
 20
138.790442
 11
314.008800
 21
140.937106
 72
     1
 10
314.008800
 20
140.937106
 11
314.008800
 21
143.083694
 72
     1
 10
314.008800
 20
143.083694
 11
314.008800
 21
145.230358
 72
     1
 10
314.008800
 20
145.230358
 11
314.008800
 21
147.377249
 72
     1
 10
314.008800
 20
147.377249
 11
314.008800
 21
149.524519
 72
     1
 10
314.008800
 20
149.524519
 11
314.008800
 21
151.672319
 72
     1
 10
314.008800
 20
151.672319
 11
314.008800
 21
153.820800
 97
     0
 75
     0
 76
     1
 98
     1
 10
0.000000
 20
0.000000
  0
POLYLINE
  8
0
  6
CONTINUOUS
 66
     1
 40
0.000000
 41
0.000000
 70
     1
  0
VERTEX
  8
0
  6
CONTINUOUS
 10
314.008800
 20
153.820800
  0
VERTEX
  8
0
  6
CONTINUOUS
 10
314.008800
 20
153.957689
  0
VERTEX
  8
0
  6
CONTINUOUS
 10
314.008800
 20
154.053511
  0
VERTEX
  8
0
  6
CONTINUOUS
 10
314.008800
 20
154.089600
  0
VERTEX
  8
0
  6
CONTINUOUS
 10
313.693956
 20
154.089600
  0
VERTEX
  8
0
  6
CONTINUOUS
 10
313.382844
 20
154.089600
  0
VERTEX
  8
0
  6
CONTINUOUS
 10
313.068000
 20
154.089600
  0
VERTEX
  8
0
  6
CONTINUOUS
 10
313.068000
 20
154.053511
  0
VERTEX
  8
0
  6
CONTINUOUS
 10
313.068000
 20
153.957689
  0
VERTEX
  8
0
  6
CONTINUOUS
 10
313.068000
 20
153.820800
  0
VERTEX
  8
0
  6
CONTINUOUS
 10
313.068000
 20
151.676105
  0
VERTEX
  8
0
  6
CONTINUOUS
 10
313.068000
 20
149.530653
  0
VERTEX
  8
0
  6
CONTINUOUS
 10
313.068000
 20
147.384519
  0
VERTEX
  8
0
  6
CONTINUOUS
 10
313.068000
 20
145.237780
  0
VERTEX
  8
0
  6
CONTINUOUS
 10
313.068000
 20
143.090510
  0
VERTEX
  8
0
  6
CONTINUOUS
 10
313.068000
 20
140.942786
  0
VERTEX
  8
0
  6
CONTINUOUS
 10
313.068000
 20
138.794683
  0
VERTEX
  8
0
  6
CONTINUOUS
 10
313.068000
 20
136.646277
  0
VERTEX
  8
0
  6
CONTINUOUS
 10
313.068000
 20
134.497644
  0
VERTEX
  8
0
  6
CONTINUOUS
 10
313.068000
 20
132.348860
  0
VERTEX
  8
0
  6
CONTINUOUS
 10
313.068000
 20
130.200000
  0
VERTEX
  8
0
  6
CONTINUOUS
 10
313.068000
 20
130.200000
  0
VERTEX
  8
0
  6
CONTINUOUS
 10
313.068000
 20
130.063111
  0
VERTEX
  8
0
  6
CONTINUOUS
 10
313.068000
 20
129.967289
  0
VERTEX
  8
0
  6
CONTINUOUS
 10
313.068000
 20
129.931200
  0
VERTEX
  8
0
  6
CONTINUOUS
 10
313.382844
 20
129.931200
  0
VERTEX
  8
0
  6
CONTINUOUS
 10
313.693956
 20
129.931200
  0
VERTEX
  8
0
  6
CONTINUOUS
 10
314.008800
 20
129.931200
  0
VERTEX
  8
0
  6
CONTINUOUS
 10
314.008800
 20
129.967289
  0
VERTEX
  8
0
  6
CONTINUOUS
 10
314.008800
 20
130.063111
  0
VERTEX
  8
0
  6
CONTINUOUS
 10
314.008800
 20
130.200000
  0
VERTEX
  8
0
  6
CONTINUOUS
 10
314.008800
 20
132.348481
  0
VERTEX
  8
0
  6
CONTINUOUS
 10
314.008800
 20
134.496281
  0
VERTEX
  8
0
  6
CONTINUOUS
 10
314.008800
 20
136.643551
  0
VERTEX
  8
0
  6
CONTINUOUS
 10
314.008800
 20
138.790442
  0
VERTEX
  8
0
  6
CONTINUOUS
 10
314.008800
 20
140.937106
  0
VERTEX
  8
0
  6
CONTINUOUS
 10
314.008800
 20
143.083694
  0
VERTEX
  8
0
  6
CONTINUOUS
 10
314.008800
 20
145.230358
  0
VERTEX
  8
0
  6
CONTINUOUS
 10
314.008800
 20
147.377249
  0
VERTEX
  8
0
  6
CONTINUOUS
 10
314.008800
 20
149.524519
  0
VERTEX
  8
0
  6
CONTINUOUS
 10
314.008800
 20
151.672319
  0
SEQEND
  8
0
  0
HATCH
  5
 30404
100
AcDbEntity
  8
0
 62
    11
  6
CONTINUOUS
100
AcDbHatch
 10
0.000000
 20
0.000000
 30
0.000000
210
0.000000
220
0.000000
230
0.016800
  2
SOLID
 70
     1
 71
     0
 91
     1
 92
     1
 93
    12
 72
     1
 10
313.538400
 20
153.955200
 11
313.336800
 21
153.899200
 72
     1
 10
313.336800
 20
153.899200
 11
313.191200
 21
153.753600
 72
     1
 10
313.191200
 20
153.753600
 11
313.135200
 21
153.552000
 72
     1
 10
313.135200
 20
153.552000
 11
313.191200
 21
153.350400
 72
     1
 10
313.191200
 20
153.350400
 11
313.336800
 21
153.204800
 72
     1
 10
313.336800
 20
153.204800
 11
313.538400
 21
153.148800
 72
     1
 10
313.538400
 20
153.148800
 11
313.740000
 21
153.204800
 72
     1
 10
313.740000
 20
153.204800
 11
313.885600
 21
153.350400
 72
     1
 10
313.885600
 20
153.350400
 11
313.941600
 21
153.552000
 72
     1
 10
313.941600
 20
153.552000
 11
313.885600
 21
153.753600
 72
     1
 10
313.885600
 20
153.753600
 11
313.740000
 21
153.899200
 72
     1
 10
313.740000
 20
153.899200
 11
313.538400
 21
153.955200
 97
     0
 75
     0
 76
     1
 98
     1
 10
0.000000
 20
0.000000
  0
POLYLINE
  8
0
  6
CONTINUOUS
 66
     1
 40
0.000000
 41
0.000000
 70
     1
  0
VERTEX
  8
0
  6
CONTINUOUS
 10
313.538400
 20
153.955200
  0
VERTEX
  8
0
  6
CONTINUOUS
 10
313.336800
 20
153.899200
  0
VERTEX
  8
0
  6
CONTINUOUS
 10
313.191200
 20
153.753600
  0
VERTEX
  8
0
  6
CONTINUOUS
 10
313.135200
 20
153.552000
  0
VERTEX
  8
0
  6
CONTINUOUS
 10
313.191200
 20
153.350400
  0
VERTEX
  8
0
  6
CONTINUOUS
 10
313.336800
 20
153.204800
  0
VERTEX
  8
0
  6
CONTINUOUS
 10
313.538400
 20
153.148800
  0
VERTEX
  8
0
  6
CONTINUOUS
 10
313.740000
 20
153.204800
  0
VERTEX
  8
0
  6
CONTINUOUS
 10
313.885600
 20
153.350400
  0
VERTEX
  8
0
  6
CONTINUOUS
 10
313.941600
 20
153.552000
  0
VERTEX
  8
0
  6
CONTINUOUS
 10
313.885600
 20
153.753600
  0
VERTEX
  8
0
  6
CONTINUOUS
 10
313.740000
 20
153.899200
  0
SEQEND
  8
0
  0
HATCH
  5
 30405
100
AcDbEntity
  8
0
 62
    11
  6
CONTINUOUS
100
AcDbHatch
 10
0.000000
 20
0.000000
 30
0.000000
210
0.000000
220
0.000000
230
0.016800
  2
SOLID
 70
     1
 71
     0
 91
     1
 92
     1
 93
    12
 72
     1
 10
313.538400
 20
131.006400
 11
313.336800
 21
130.950400
 72
     1
 10
313.336800
 20
130.950400
 11
313.191200
 21
130.804800
 72
     1
 10
313.191200
 20
130.804800
 11
313.135200
 21
130.603200
 72
     1
 10
313.135200
 20
130.603200
 11
313.191200
 21
130.401600
 72
     1
 10
313.191200
 20
130.401600
 11
313.336800
 21
130.256000
 72
     1
 10
313.336800
 20
130.256000
 11
313.538400
 21
130.200000
 72
     1
 10
313.538400
 20
130.200000
 11
313.740000
 21
130.256000
 72
     1
 10
313.740000
 20
130.256000
 11
313.885600
 21
130.401600
 72
     1
 10
313.885600
 20
130.401600
 11
313.941600
 21
130.603200
 72
     1
 10
313.941600
 20
130.603200
 11
313.885600
 21
130.804800
 72
     1
 10
313.885600
 20
130.804800
 11
313.740000
 21
130.950400
 72
     1
 10
313.740000
 20
130.950400
 11
313.538400
 21
131.006400
 97
     0
 75
     0
 76
     1
 98
     1
 10
0.000000
 20
0.000000
  0
POLYLINE
  8
0
  6
CONTINUOUS
 66
     1
 40
0.000000
 41
0.000000
 70
     1
  0
VERTEX
  8
0
  6
CONTINUOUS
 10
313.538400
 20
131.006400
  0
VERTEX
  8
0
  6
CONTINUOUS
 10
313.336800
 20
130.950400
  0
VERTEX
  8
0
  6
CONTINUOUS
 10
313.191200
 20
130.804800
  0
VERTEX
  8
0
  6
CONTINUOUS
 10
313.135200
 20
130.603200
  0
VERTEX
  8
0
  6
CONTINUOUS
 10
313.191200
 20
130.401600
  0
VERTEX
  8
0
  6
CONTINUOUS
 10
313.336800
 20
130.256000
  0
VERTEX
  8
0
  6
CONTINUOUS
 10
313.538400
 20
130.200000
  0
VERTEX
  8
0
  6
CONTINUOUS
 10
313.740000
 20
130.256000
  0
VERTEX
  8
0
  6
CONTINUOUS
 10
313.885600
 20
130.401600
  0
VERTEX
  8
0
  6
CONTINUOUS
 10
313.941600
 20
130.603200
  0
VERTEX
  8
0
  6
CONTINUOUS
 10
313.885600
 20
130.804800
  0
VERTEX
  8
0
  6
CONTINUOUS
 10
313.740000
 20
130.950400
  0
SEQEND
  8
0
  0
HATCH
  5
 30406
100
AcDbEntity
  8
0
 62
   230
100
AcDbHatch
 10
0.000000
 20
0.000000
 30
0.000000
210
0.000000
220
0.000000
230
0.016800
  2
SOLID
 70
     1
 71
     0
 91
     1
 92
     1
 93
     8
 72
     1
 10
300.753600
 20
129.931200
 11
300.753600
 21
168.050400
 72
     1
 10
300.753600
 20
168.050400
 11
299.476800
 21
168.050400
 72
     1
 10
299.476800
 20
168.050400
 11
299.493600
 21
131.208000
 72
     1
 10
299.493600
 20
131.208000
 11
292.269600
 21
131.208000
 72
     1
 10
292.269600
 20
131.208000
 11
292.269600
 21
123.530400
 72
     1
 10
292.269600
 20
123.530400
 11
293.529600
 21
123.530400
 72
     1
 10
293.529600
 20
123.530400
 11
293.529600
 21
129.931200
 72
     1
 10
293.529600
 20
129.931200
 11
300.753600
 21
129.931200
 97
     0
 75
     0
 76
     1
 98
     1
 10
0.000000
 20
0.000000
  0
POLYLINE
  8
0
  6
CONTINUOUS
 66
     1
 40
0.000000
 41
0.000000
 70
     1
  0
VERTEX
  8
0
  6
CONTINUOUS
 10
300.753600
 20
129.931200
  0
VERTEX
  8
0
  6
CONTINUOUS
 10
300.753600
 20
168.050400
  0
VERTEX
  8
0
  6
CONTINUOUS
 10
299.476800
 20
168.050400
  0
VERTEX
  8
0
  6
CONTINUOUS
 10
299.493600
 20
131.208000
  0
VERTEX
  8
0
  6
CONTINUOUS
 10
292.269600
 20
131.208000
  0
VERTEX
  8
0
  6
CONTINUOUS
 10
292.269600
 20
123.530400
  0
VERTEX
  8
0
  6
CONTINUOUS
 10
293.529600
 20
123.530400
  0
VERTEX
  8
0
  6
CONTINUOUS
 10
293.529600
 20
129.931200
  0
SEQEND
  8
0
  0
HATCH
  5
 30407
100
AcDbEntity
  8
0
 62
   230
100
AcDbHatch
 10
0.000000
 20
0.000000
 30
0.000000
210
0.000000
220
0.000000
230
0.016800
  2
SOLID
 70
     1
 71
     0
 91
     1
 92
     1
 93
     8
 72
     1
 10
294.739200
 20
111.501600
 11
294.739200
 21
112.761600
 72
     1
 10
294.739200
 20
112.761600
 11
293.529600
 21
112.761600
 72
     1
 10
293.529600
 20
112.761600
 11
293.529600
 21
113.265600
 72
     1
 10
293.529600
 20
113.265600
 11
292.269600
 21
113.265600
 72
     1
 10
292.269600
 20
113.265600
 11
292.269600
 21
112.761600
 72
     1
 10
292.269600
 20
112.761600
 11
255.393600
 21
112.761600
 72
     1
 10
255.393600
 20
112.761600
 11
255.393600
 21
111.501600
 72
     1
 10
255.393600
 20
111.501600
 11
294.739200
 21
111.501600
 97
     0
 75
     0
 76
     1
 98
     1
 10
0.000000
 20
0.000000
  0
POLYLINE
  8
0
  6
CONTINUOUS
 66
     1
 40
0.000000
 41
0.000000
 70
     1
  0
VERTEX
  8
0
  6
CONTINUOUS
 10
294.739200
 20
111.501600
  0
VERTEX
  8
0
  6
CONTINUOUS
 10
294.739200
 20
112.761600
  0
VERTEX
  8
0
  6
CONTINUOUS
 10
293.529600
 20
112.761600
  0
VERTEX
  8
0
  6
CONTINUOUS
 10
293.529600
 20
113.265600
  0
VERTEX
  8
0
  6
CONTINUOUS
 10
292.269600
 20
113.265600
  0
VERTEX
  8
0
  6
CONTINUOUS
 10
292.269600
 20
112.761600
  0
VERTEX
  8
0
  6
CONTINUOUS
 10
255.393600
 20
112.761600
  0
VERTEX
  8
0
  6
CONTINUOUS
 10
255.393600
 20
111.501600
  0
SEQEND
  8
0
  0
HATCH
  5
 30408
100
AcDbEntity
  8
0
 62
   230
100
AcDbHatch
 10
0.000000
 20
0.000000
 30
0.000000
210
0.000000
220
0.000000
230
0.016800
  2
SOLID
 70
     1
 71
     0
 91
     1
 92
     1
 93
     8
 72
     1
 10
306.936000
 20
100.682400
 11
306.936000
 21
118.087200
 72
     1
 10
306.936000
 20
118.087200
 11
305.440800
 21
118.087200
 72
     1
 10
305.440800
 20
118.087200
 11
305.440800
 21
112.660800
 72
     1
 10
305.440800
 20
112.660800
 11
305.205600
 21
112.660800
 72
     1
 10
305.205600
 20
112.660800
 11
305.205600
 21
111.400800
 72
     1
 10
305.205600
 20
111.400800
 11
305.440800
 21
111.400800
 72
     1
 10
305.440800
 20
111.400800
 11
305.440800
 21
100.682400
 72
     1
 10
305.440800
 20
100.682400
 11
306.936000
 21
100.682400
 97
     0
 75
     0
 76
     1
 98
     1
 10
0.000000
 20
0.000000
  0
POLYLINE
  8
0
  6
CONTINUOUS
 66
     1
 40
0.000000
 41
0.000000
 70
     1
  0
VERTEX
  8
0
  6
CONTINUOUS
 10
306.936000
 20
100.682400
  0
VERTEX
  8
0
  6
CONTINUOUS
 10
306.936000
 20
118.087200
  0
VERTEX
  8
0
  6
CONTINUOUS
 10
305.440800
 20
118.087200
  0
VERTEX
  8
0
  6
CONTINUOUS
 10
305.440800
 20
112.660800
  0
VERTEX
  8
0
  6
CONTINUOUS
 10
305.205600
 20
112.660800
  0
VERTEX
  8
0
  6
CONTINUOUS
 10
305.205600
 20
111.400800
  0
VERTEX
  8
0
  6
CONTINUOUS
 10
305.440800
 20
111.400800
  0
VERTEX
  8
0
  6
CONTINUOUS
 10
305.440800
 20
100.682400
  0
SEQEND
  8
0
  0
HATCH
  5
 30409
100
AcDbEntity
  8
0
 62
   254
100
AcDbHatch
 10
0.000000
 20
0.000000
 30
0.000000
210
0.000000
220
0.000000
230
0.016800
  2
SOLID
 70
     1
 71
     0
 91
     1
 92
     1
 93
    35
 72
     1
 10
171.696000
 20
80.892000
 11
171.158400
 21
81.211200
 72
     1
 10
171.158400
 20
81.211200
 11
170.167200
 21
82.202400
 72
     1
 10
170.167200
 20
82.202400
 11
170.016000
 21
82.286400
 72
     1
 10
170.016000
 20
82.286400
 11
169.881600
 21
82.286400
 72
     1
 10
169.881600
 20
82.286400
 11
169.629600
 21
82.101600
 72
     1
 10
169.629600
 20
82.101600
 11
168.957600
 21
81.093600
 72
     1
 10
168.957600
 20
81.093600
 11
168.705600
 21
80.925600
 72
     1
 10
168.705600
 20
80.925600
 11
168.571200
 21
80.925600
 72
     1
 10
168.571200
 20
80.925600
 11
167.949600
 21
81.412800
 72
     1
 10
167.949600
 20
81.412800
 11
167.781600
 21
81.463200
 72
     1
 10
167.781600
 20
81.463200
 11
167.496000
 21
81.412800
 72
     1
 10
167.496000
 20
81.412800
 11
167.126400
 21
81.110400
 72
     1
 10
167.126400
 20
81.110400
 11
166.656000
 21
80.287200
 72
     1
 10
166.656000
 20
80.287200
 11
166.656000
 21
80.270400
 72
     1
 10
166.656000
 20
80.270400
 11
166.672800
 21
121.480800
 72
     1
 10
166.672800
 20
121.480800
 11
181.776000
 21
135.391200
 72
     1
 10
181.776000
 20
135.391200
 11
181.776000
 21
150.511200
 72
     1
 10
181.776000
 20
150.511200
 11
166.656000
 21
164.690400
 72
     1
 10
166.656000
 20
164.690400
 11
166.656000
 21
186.883200
 72
     1
 10
166.656000
 20
186.883200
 11
167.428800
 21
187.168800
 72
     1
 10
167.428800
 20
187.168800
 11
168.016800
 21
187.252800
 72
     1
 10
168.016800
 20
187.252800
 11
168.470400
 21
187.219200
 72
     1
 10
168.470400
 20
187.219200
 11
168.789600
 21
187.000800
 72
     1
 10
168.789600
 20
187.000800
 11
169.276800
 21
186.043200
 72
     1
 10
169.276800
 20
186.043200
 11
169.596000
 21
185.824800
 72
     1
 10
169.596000
 20
185.824800
 11
170.049600
 21
185.791200
 72
     1
 10
170.049600
 20
185.791200
 11
170.704800
 21
185.908800
 72
     1
 10
170.704800
 20
185.908800
 11
171.645600
 21
186.295200
 72
     1
 10
171.645600
 20
186.295200
 11
171.645600
 21
164.959200
 72
     1
 10
171.645600
 20
164.959200
 11
173.392800
 21
164.959200
 72
     1
 10
173.392800
 20
164.959200
 11
186.463200
 21
152.678400
 72
     1
 10
186.463200
 20
152.678400
 11
186.463200
 21
133.946400
 72
     1
 10
186.463200
 20
133.946400
 11
173.426400
 21
121.447200
 72
     1
 10
173.426400
 20
121.447200
 11
171.696000
 21
121.464000
 72
     1
 10
171.696000
 20
121.464000
 11
171.696000
 21
80.892000
 97
     0
 75
     0
 76
     1
 98
     1
 10
0.000000
 20
0.000000
  0
POLYLINE
  8
0
  6
CONTINUOUS
 66
     1
 40
0.000000
 41
0.000000
 70
     1
  0
VERTEX
  8
0
  6
CONTINUOUS
 10
171.696000
 20
80.892000
  0
VERTEX
  8
0
  6
CONTINUOUS
 10
171.158400
 20
81.211200
  0
VERTEX
  8
0
  6
CONTINUOUS
 10
170.167200
 20
82.202400
  0
VERTEX
  8
0
  6
CONTINUOUS
 10
170.016000
 20
82.286400
  0
VERTEX
  8
0
  6
CONTINUOUS
 10
169.881600
 20
82.286400
  0
VERTEX
  8
0
  6
CONTINUOUS
 10
169.629600
 20
82.101600
  0
VERTEX
  8
0
  6
CONTINUOUS
 10
168.957600
 20
81.093600
  0
VERTEX
  8
0
  6
CONTINUOUS
 10
168.705600
 20
80.925600
  0
VERTEX
  8
0
  6
CONTINUOUS
 10
168.571200
 20
80.925600
  0
VERTEX
  8
0
  6
CONTINUOUS
 10
167.949600
 20
81.412800
  0
VERTEX
  8
0
  6
CONTINUOUS
 10
167.781600
 20
81.463200
  0
VERTEX
  8
0
  6
CONTINUOUS
 10
167.496000
 20
81.412800
  0
VERTEX
  8
0
  6
CONTINUOUS
 10
167.126400
 20
81.110400
  0
VERTEX
  8
0
  6
CONTINUOUS
 10
166.656000
 20
80.287200
  0
VERTEX
  8
0
  6
CONTINUOUS
 10
166.656000
 20
80.270400
  0
VERTEX
  8
0
  6
CONTINUOUS
 10
166.672800
 20
121.480800
  0
VERTEX
  8
0
  6
CONTINUOUS
 10
181.776000
 20
135.391200
  0
VERTEX
  8
0
  6
CONTINUOUS
 10
181.776000
 20
150.511200
  0
VERTEX
  8
0
  6
CONTINUOUS
 10
166.656000
 20
164.690400
  0
VERTEX
  8
0
  6
CONTINUOUS
 10
166.656000
 20
186.883200
  0
VERTEX
  8
0
  6
CONTINUOUS
 10
167.428800
 20
187.168800
  0
VERTEX
  8
0
  6
CONTINUOUS
 10
168.016800
 20
187.252800
  0
VERTEX
  8
0
  6
CONTINUOUS
 10
168.470400
 20
187.219200
  0
VERTEX
  8
0
  6
CONTINUOUS
 10
168.789600
 20
187.000800
  0
VERTEX
  8
0
  6
CONTINUOUS
 10
169.276800
 20
186.043200
  0
VERTEX
  8
0
  6
CONTINUOUS
 10
169.596000
 20
185.824800
  0
VERTEX
  8
0
  6
CONTINUOUS
 10
170.049600
 20
185.791200
  0
VERTEX
  8
0
  6
CONTINUOUS
 10
170.704800
 20
185.908800
  0
VERTEX
  8
0
  6
CONTINUOUS
 10
171.645600
 20
186.295200
  0
VERTEX
  8
0
  6
CONTINUOUS
 10
171.645600
 20
164.959200
  0
VERTEX
  8
0
  6
CONTINUOUS
 10
173.392800
 20
164.959200
  0
VERTEX
  8
0
  6
CONTINUOUS
 10
186.463200
 20
152.678400
  0
VERTEX
  8
0
  6
CONTINUOUS
 10
186.463200
 20
133.946400
  0
VERTEX
  8
0
  6
CONTINUOUS
 10
173.426400
 20
121.447200
  0
VERTEX
  8
0
  6
CONTINUOUS
 10
171.696000
 20
121.464000
  0
SEQEND
  8
0
  0
HATCH
  5
 30410
100
AcDbEntity
  8
0
 62
    31
100
AcDbHatch
 10
0.000000
 20
0.000000
 30
0.000000
210
0.000000
220
0.000000
230
0.016800
  2
SOLID
 70
     1
 71
     0
 91
     1
 92
     1
 93
     8
 72
     1
 10
166.824000
 20
118.020000
 11
135.475200
 21
118.020000
 72
     1
 10
135.475200
 20
118.020000
 11
135.475200
 21
115.869600
 72
     1
 10
135.475200
 20
115.869600
 11
154.190400
 21
115.869600
 72
     1
 10
154.190400
 20
115.869600
 11
154.190400
 21
114.928800
 72
     1
 10
154.190400
 20
114.928800
 11
156.357600
 21
114.928800
 72
     1
 10
156.357600
 20
114.928800
 11
156.357600
 21
115.869600
 72
     1
 10
156.357600
 20
115.869600
 11
166.874400
 21
115.869600
 72
     1
 10
166.874400
 20
115.869600
 11
166.824000
 21
118.020000
 97
     0
 75
     0
 76
     1
 98
     1
 10
0.000000
 20
0.000000
  0
POLYLINE
  8
0
  6
CONTINUOUS
 66
     1
 40
0.000000
 41
0.000000
 70
     1
  0
VERTEX
  8
0
  6
CONTINUOUS
 10
166.824000
 20
118.020000
  0
VERTEX
  8
0
  6
CONTINUOUS
 10
135.475200
 20
118.020000
  0
VERTEX
  8
0
  6
CONTINUOUS
 10
135.475200
 20
115.869600
  0
VERTEX
  8
0
  6
CONTINUOUS
 10
154.190400
 20
115.869600
  0
VERTEX
  8
0
  6
CONTINUOUS
 10
154.190400
 20
114.928800
  0
VERTEX
  8
0
  6
CONTINUOUS
 10
156.357600
 20
114.928800
  0
VERTEX
  8
0
  6
CONTINUOUS
 10
156.357600
 20
115.869600
  0
VERTEX
  8
0
  6
CONTINUOUS
 10
166.874400
 20
115.869600
  0
SEQEND
  8
0
  0
HATCH
  5
 30411
100
AcDbEntity
  8
0
 62
    30
100
AcDbHatch
 10
0.000000
 20
0.000000
 30
0.000000
210
0.000000
220
0.000000
230
0.016800
  2
SOLID
 70
     1
 71
     0
 91
     1
 92
     1
 93
     4
 72
     1
 10
156.727200
 20
102.866400
 11
153.501600
 21
102.866400
 72
     1
 10
153.501600
 20
102.866400
 11
153.501600
 21
101.236800
 72
     1
 10
153.501600
 20
101.236800
 11
156.727200
 21
101.236800
 72
     1
 10
156.727200
 20
101.236800
 11
156.727200
 21
102.866400
 97
     0
 75
     0
 76
     1
 98
     1
 10
0.000000
 20
0.000000
  0
POLYLINE
  8
0
  6
CONTINUOUS
 66
     1
 40
0.000000
 41
0.000000
 70
     1
  0
VERTEX
  8
0
  6
CONTINUOUS
 10
156.727200
 20
102.866400
  0
VERTEX
  8
0
  6
CONTINUOUS
 10
153.501600
 20
102.866400
  0
VERTEX
  8
0
  6
CONTINUOUS
 10
153.501600
 20
101.236800
  0
VERTEX
  8
0
  6
CONTINUOUS
 10
156.727200
 20
101.236800
  0
SEQEND
  8
0
  0
HATCH
  5
 30412
100
AcDbEntity
  8
0
 62
     2
100
AcDbHatch
 10
0.000000
 20
0.000000
 30
0.000000
210
0.000000
220
0.000000
230
0.016800
  2
SOLID
 70
     1
 71
     0
 91
     1
 92
     1
 93
     4
 72
     1
 10
154.711200
 20
115.012800
 11
153.904800
 21
115.012800
 72
     1
 10
153.904800
 20
115.012800
 11
153.904800
 21
102.732000
 72
     1
 10
153.904800
 20
102.732000
 11
154.711200
 21
102.732000
 72
     1
 10
154.711200
 20
102.732000
 11
154.711200
 21
115.012800
 97
     0
 75
     0
 76
     1
 98
     1
 10
0.000000
 20
0.000000
  0
POLYLINE
  8
0
  6
CONTINUOUS
 66
     1
 40
0.000000
 41
0.000000
 70
     1
  0
VERTEX
  8
0
  6
CONTINUOUS
 10
154.711200
 20
115.012800
  0
VERTEX
  8
0
  6
CONTINUOUS
 10
153.904800
 20
115.012800
  0
VERTEX
  8
0
  6
CONTINUOUS
 10
153.904800
 20
102.732000
  0
VERTEX
  8
0
  6
CONTINUOUS
 10
154.711200
 20
102.732000
  0
SEQEND
  8
0
  0
HATCH
  5
 30413
100
AcDbEntity
  8
0
 62
     2
100
AcDbHatch
 10
0.000000
 20
0.000000
 30
0.000000
210
0.000000
220
0.000000
230
0.016800
  2
SOLID
 70
     1
 71
     0
 91
     1
 92
     1
 93
     4
 72
     1
 10
145.790400
 20
111.988800
 11
145.219200
 21
111.417600
 72
     1
 10
145.219200
 20
111.417600
 11
153.904800
 21
102.732000
 72
     1
 10
153.904800
 20
102.732000
 11
154.476000
 21
103.303200
 72
     1
 10
154.476000
 20
103.303200
 11
145.790400
 21
111.988800
 97
     0
 75
     0
 76
     1
 98
     1
 10
0.000000
 20
0.000000
  0
POLYLINE
  8
0
  6
CONTINUOUS
 66
     1
 40
0.000000
 41
0.000000
 70
     1
  0
VERTEX
  8
0
  6
CONTINUOUS
 10
145.790400
 20
111.988800
  0
VERTEX
  8
0
  6
CONTINUOUS
 10
145.219200
 20
111.417600
  0
VERTEX
  8
0
  6
CONTINUOUS
 10
153.904800
 20
102.732000
  0
VERTEX
  8
0
  6
CONTINUOUS
 10
154.476000
 20
103.303200
  0
SEQEND
  8
0
  0
HATCH
  5
 30414
100
AcDbEntity
  8
0
 62
     2
100
AcDbHatch
 10
0.000000
 20
0.000000
 30
0.000000
210
0.000000
220
0.000000
230
0.016800
  2
SOLID
 70
     1
 71
     0
 91
     1
 92
     1
 93
     4
 72
     1
 10
171.645600
 20
115.684800
 11
171.040800
 21
115.684800
 72
     1
 10
171.040800
 20
115.684800
 11
171.040800
 21
108.662400
 72
     1
 10
171.040800
 20
108.662400
 11
171.645600
 21
108.662400
 72
     1
 10
171.645600
 20
108.662400
 11
171.645600
 21
115.684800
 97
     0
 75
     0
 76
     1
 98
     1
 10
0.000000
 20
0.000000
  0
POLYLINE
  8
0
  6
CONTINUOUS
 66
     1
 40
0.000000
 41
0.000000
 70
     1
  0
VERTEX
  8
0
  6
CONTINUOUS
 10
171.645600
 20
115.684800
  0
VERTEX
  8
0
  6
CONTINUOUS
 10
171.040800
 20
115.684800
  0
VERTEX
  8
0
  6
CONTINUOUS
 10
171.040800
 20
108.662400
  0
VERTEX
  8
0
  6
CONTINUOUS
 10
171.645600
 20
108.662400
  0
SEQEND
  8
0
  0
HATCH
  5
 30415
100
AcDbEntity
  8
0
 62
     2
100
AcDbHatch
 10
0.000000
 20
0.000000
 30
0.000000
210
0.000000
220
0.000000
230
0.016800
  2
SOLID
 70
     1
 71
     0
 91
     1
 92
     1
 93
     4
 72
     1
 10
171.645600
 20
115.684800
 11
171.225600
 21
116.121600
 72
     1
 10
171.225600
 20
116.121600
 11
166.252800
 21
111.148800
 72
     1
 10
166.252800
 20
111.148800
 11
166.689600
 21
110.728800
 72
     1
 10
166.689600
 20
110.728800
 11
171.645600
 21
115.684800
 97
     0
 75
     0
 76
     1
 98
     1
 10
0.000000
 20
0.000000
  0
POLYLINE
  8
0
  6
CONTINUOUS
 66
     1
 40
0.000000
 41
0.000000
 70
     1
  0
VERTEX
  8
0
  6
CONTINUOUS
 10
171.645600
 20
115.684800
  0
VERTEX
  8
0
  6
CONTINUOUS
 10
171.225600
 20
116.121600
  0
VERTEX
  8
0
  6
CONTINUOUS
 10
166.252800
 20
111.148800
  0
VERTEX
  8
0
  6
CONTINUOUS
 10
166.689600
 20
110.728800
  0
SEQEND
  8
0
  0
HATCH
  5
 30416
100
AcDbEntity
  8
0
 62
     2
100
AcDbHatch
 10
0.000000
 20
0.000000
 30
0.000000
210
0.000000
220
0.000000
230
0.016800
  2
SOLID
 70
     1
 71
     0
 91
     1
 92
     1
 93
     4
 72
     1
 10
171.645600
 20
115.684800
 11
171.645600
 21
116.289600
 72
     1
 10
171.645600
 20
116.289600
 11
164.623200
 21
116.289600
 72
     1
 10
164.623200
 20
116.289600
 11
164.623200
 21
115.684800
 72
     1
 10
164.623200
 20
115.684800
 11
171.645600
 21
115.684800
 97
     0
 75
     0
 76
     1
 98
     1
 10
0.000000
 20
0.000000
  0
POLYLINE
  8
0
  6
CONTINUOUS
 66
     1
 40
0.000000
 41
0.000000
 70
     1
  0
VERTEX
  8
0
  6
CONTINUOUS
 10
171.645600
 20
115.684800
  0
VERTEX
  8
0
  6
CONTINUOUS
 10
171.645600
 20
116.289600
  0
VERTEX
  8
0
  6
CONTINUOUS
 10
164.623200
 20
116.289600
  0
VERTEX
  8
0
  6
CONTINUOUS
 10
164.623200
 20
115.684800
  0
SEQEND
  8
0
  0
HATCH
  5
 30417
100
AcDbEntity
  8
0
 62
     2
100
AcDbHatch
 10
0.000000
 20
0.000000
 30
0.000000
210
0.000000
220
0.000000
230
0.016800
  2
SOLID
 70
     1
 71
     0
 91
     1
 92
     1
 93
     4
 72
     1
 10
171.645600
 20
101.304000
 11
171.040800
 21
101.304000
 72
     1
 10
171.040800
 20
101.304000
 11
171.040800
 21
108.326400
 72
     1
 10
171.040800
 20
108.326400
 11
171.645600
 21
108.326400
 72
     1
 10
171.645600
 20
108.326400
 11
171.645600
 21
101.304000
 97
     0
 75
     0
 76
     1
 98
     1
 10
0.000000
 20
0.000000
  0
POLYLINE
  8
0
  6
CONTINUOUS
 66
     1
 40
0.000000
 41
0.000000
 70
     1
  0
VERTEX
  8
0
  6
CONTINUOUS
 10
171.645600
 20
101.304000
  0
VERTEX
  8
0
  6
CONTINUOUS
 10
171.040800
 20
101.304000
  0
VERTEX
  8
0
  6
CONTINUOUS
 10
171.040800
 20
108.326400
  0
VERTEX
  8
0
  6
CONTINUOUS
 10
171.645600
 20
108.326400
  0
SEQEND
  8
0
  0
HATCH
  5
 30418
100
AcDbEntity
  8
0
 62
     2
100
AcDbHatch
 10
0.000000
 20
0.000000
 30
0.000000
210
0.000000
220
0.000000
230
0.016800
  2
SOLID
 70
     1
 71
     0
 91
     1
 92
     1
 93
     4
 72
     1
 10
171.645600
 20
101.304000
 11
171.225600
 21
100.884000
 72
     1
 10
171.225600
 20
100.884000
 11
166.252800
 21
105.840000
 72
     1
 10
166.252800
 20
105.840000
 11
166.689600
 21
106.276800
 72
     1
 10
166.689600
 20
106.276800
 11
171.645600
 21
101.304000
 97
     0
 75
     0
 76
     1
 98
     1
 10
0.000000
 20
0.000000
  0
POLYLINE
  8
0
  6
CONTINUOUS
 66
     1
 40
0.000000
 41
0.000000
 70
     1
  0
VERTEX
  8
0
  6
CONTINUOUS
 10
171.645600
 20
101.304000
  0
VERTEX
  8
0
  6
CONTINUOUS
 10
171.225600
 20
100.884000
  0
VERTEX
  8
0
  6
CONTINUOUS
 10
166.252800
 20
105.840000
  0
VERTEX
  8
0
  6
CONTINUOUS
 10
166.689600
 20
106.276800
  0
SEQEND
  8
0
  0
HATCH
  5
 30419
100
AcDbEntity
  8
0
 62
     2
100
AcDbHatch
 10
0.000000
 20
0.000000
 30
0.000000
210
0.000000
220
0.000000
230
0.016800
  2
SOLID
 70
     1
 71
     0
 91
     1
 92
     1
 93
     4
 72
     1
 10
171.645600
 20
101.304000
 11
171.645600
 21
100.699200
 72
     1
 10
171.645600
 20
100.699200
 11
164.623200
 21
100.699200
 72
     1
 10
164.623200
 20
100.699200
 11
164.623200
 21
101.304000
 72
     1
 10
164.623200
 20
101.304000
 11
171.645600
 21
101.304000
 97
     0
 75
     0
 76
     1
 98
     1
 10
0.000000
 20
0.000000
  0
POLYLINE
  8
0
  6
CONTINUOUS
 66
     1
 40
0.000000
 41
0.000000
 70
     1
  0
VERTEX
  8
0
  6
CONTINUOUS
 10
171.645600
 20
101.304000
  0
VERTEX
  8
0
  6
CONTINUOUS
 10
171.645600
 20
100.699200
  0
VERTEX
  8
0
  6
CONTINUOUS
 10
164.623200
 20
100.699200
  0
VERTEX
  8
0
  6
CONTINUOUS
 10
164.623200
 20
101.304000
  0
SEQEND
  8
0
  0
HATCH
  5
 30420
100
AcDbEntity
  8
0
 62
    30
100
AcDbHatch
 10
0.000000
 20
0.000000
 30
0.000000
210
0.000000
220
0.000000
230
0.016800
  2
SOLID
 70
     1
 71
     0
 91
     1
 92
     1
 93
     4
 72
     1
 10
156.794400
 20
116.424000
 11
153.568800
 21
116.424000
 72
     1
 10
153.568800
 20
116.424000
 11
153.568800
 21
114.811200
 72
     1
 10
153.568800
 20
114.811200
 11
156.794400
 21
114.811200
 72
     1
 10
156.794400
 20
114.811200
 11
156.794400
 21
116.424000
 97
     0
 75
     0
 76
     1
 98
     1
 10
0.000000
 20
0.000000
  0
POLYLINE
  8
0
  6
CONTINUOUS
 66
     1
 40
0.000000
 41
0.000000
 70
     1
  0
VERTEX
  8
0
  6
CONTINUOUS
 10
156.794400
 20
116.424000
  0
VERTEX
  8
0
  6
CONTINUOUS
 10
153.568800
 20
116.424000
  0
VERTEX
  8
0
  6
CONTINUOUS
 10
153.568800
 20
114.811200
  0
VERTEX
  8
0
  6
CONTINUOUS
 10
156.794400
 20
114.811200
  0
SEQEND
  8
0
  0
HATCH
  5
 30421
100
AcDbEntity
  8
0
 62
     9
100
AcDbHatch
 10
0.000000
 20
0.000000
 30
0.000000
210
0.000000
220
0.000000
230
0.016800
  2
SOLID
 70
     1
 71
     0
 91
     1
 92
     1
 93
    12
 72
     1
 10
31.029600
 20
191.167200
 11
31.029600
 21
47.493600
 72
     1
 10
31.029600
 20
47.493600
 11
38.354400
 21
47.527200
 72
     1
 10
38.354400
 20
47.527200
 11
38.354400
 21
78.237600
 72
     1
 10
38.354400
 20
78.237600
 11
34.994400
 21
79.951200
 72
     1
 10
34.994400
 20
79.951200
 11
34.994400
 21
91.711200
 72
     1
 10
34.994400
 20
91.711200
 11
38.354400
 21
94.248000
 72
     1
 10
38.354400
 20
94.248000
 11
38.354400
 21
146.025600
 72
     1
 10
38.354400
 20
146.025600
 11
34.574400
 21
147.453600
 72
     1
 10
34.574400
 20
147.453600
 11
34.574400
 21
159.734400
 72
     1
 10
34.574400
 20
159.734400
 11
38.472000
 21
161.784000
 72
     1
 10
38.472000
 20
161.784000
 11
38.354400
 21
191.167200
 72
     1
 10
38.354400
 20
191.167200
 11
31.029600
 21
191.167200
 97
     0
 75
     0
 76
     1
 98
     1
 10
0.000000
 20
0.000000
  0
POLYLINE
  8
0
  6
CONTINUOUS
 66
     1
 40
0.000000
 41
0.000000
 70
     1
  0
VERTEX
  8
0
  6
CONTINUOUS
 10
31.029600
 20
191.167200
  0
VERTEX
  8
0
  6
CONTINUOUS
 10
31.029600
 20
47.493600
  0
VERTEX
  8
0
  6
CONTINUOUS
 10
38.354400
 20
47.527200
  0
VERTEX
  8
0
  6
CONTINUOUS
 10
38.354400
 20
78.237600
  0
VERTEX
  8
0
  6
CONTINUOUS
 10
34.994400
 20
79.951200
  0
VERTEX
  8
0
  6
CONTINUOUS
 10
34.994400
 20
91.711200
  0
VERTEX
  8
0
  6
CONTINUOUS
 10
38.354400
 20
94.248000
  0
VERTEX
  8
0
  6
CONTINUOUS
 10
38.354400
 20
146.025600
  0
VERTEX
  8
0
  6
CONTINUOUS
 10
34.574400
 20
147.453600
  0
VERTEX
  8
0
  6
CONTINUOUS
 10
34.574400
 20
159.734400
  0
VERTEX
  8
0
  6
CONTINUOUS
 10
38.472000
 20
161.784000
  0
VERTEX
  8
0
  6
CONTINUOUS
 10
38.354400
 20
191.167200
  0
SEQEND
  8
0
  0
LINE
  8
0
  6
CONTINUOUS
 10
108.746400
 20
100.564800
 11
108.746400
 21
98.397600
  0
HATCH
  5
 30422
100
AcDbEntity
  8
0
 62
    31
100
AcDbHatch
 10
0.000000
 20
0.000000
 30
0.000000
210
0.000000
220
0.000000
230
0.016800
  2
SOLID
 70
     1
 71
     0
 91
     1
 92
     1
 93
    28
 72
     1
 10
125.445600
 20
174.350400
 11
125.445600
 21
170.469600
 72
     1
 10
125.445600
 20
170.469600
 11
78.943200
 21
170.469600
 72
     1
 10
78.943200
 20
170.469600
 11
78.943200
 21
165.597600
 72
     1
 10
78.943200
 20
165.597600
 11
60.715200
 21
165.597600
 72
     1
 10
60.715200
 20
165.597600
 11
60.715200
 21
166.387200
 72
     1
 10
60.715200
 20
166.387200
 11
60.732000
 21
166.387200
 72
     1
 10
60.732000
 20
166.387200
 11
60.732000
 21
168.403200
 72
     1
 10
60.732000
 20
168.403200
 11
52.953600
 21
168.403200
 72
     1
 10
52.953600
 20
168.403200
 11
52.953600
 21
169.394400
 72
     1
 10
52.953600
 20
169.394400
 11
52.970400
 21
169.394400
 72
     1
 10
52.970400
 20
169.394400
 11
52.970400
 21
171.427200
 72
     1
 10
52.970400
 20
171.427200
 11
38.337600
 21
171.427200
 72
     1
 10
38.337600
 20
171.427200
 11
38.337600
 21
169.394400
 72
     1
 10
38.337600
 20
169.394400
 11
50.937600
 21
169.394400
 72
     1
 10
50.937600
 20
169.394400
 11
50.937600
 21
166.404000
 72
     1
 10
50.937600
 20
166.404000
 11
50.954400
 21
166.404000
 72
     1
 10
50.954400
 20
166.404000
 11
50.954400
 21
166.387200
 72
     1
 10
50.954400
 20
166.387200
 11
58.699200
 21
166.387200
 72
     1
 10
58.699200
 20
166.387200
 11
58.699200
 21
163.581600
 72
     1
 10
58.699200
 20
163.581600
 11
80.959200
 21
163.581600
 72
     1
 10
80.959200
 20
163.581600
 11
80.959200
 21
167.613600
 72
     1
 10
80.959200
 20
167.613600
 11
90.736800
 21
167.613600
 72
     1
 10
90.736800
 20
167.613600
 11
90.736800
 21
168.453600
 72
     1
 10
90.736800
 20
168.453600
 11
127.461600
 21
168.453600
 72
     1
 10
127.461600
 20
168.453600
 11
127.461600
 21
172.334400
 72
     1
 10
127.461600
 20
172.334400
 11
154.476000
 21
172.334400
 72
     1
 10
154.476000
 20
172.334400
 11
154.476000
 21
174.350400
 72
     1
 10
154.476000
 20
174.350400
 11
125.445600
 21
174.350400
 97
     0
 75
     0
 76
     1
 98
     1
 10
0.000000
 20
0.000000
  0
POLYLINE
  8
0
 62
    31
  6
CONTINUOUS
 66
     1
 40
0.000000
 41
0.000000
 70
     1
  0
VERTEX
  8
0
 62
    31
  6
CONTINUOUS
 10
125.445600
 20
174.350400
  0
VERTEX
  8
0
 62
    31
  6
CONTINUOUS
 10
125.445600
 20
170.469600
  0
VERTEX
  8
0
 62
    31
  6
CONTINUOUS
 10
78.943200
 20
170.469600
  0
VERTEX
  8
0
 62
    31
  6
CONTINUOUS
 10
78.943200
 20
165.597600
  0
VERTEX
  8
0
 62
    31
  6
CONTINUOUS
 10
60.715200
 20
165.597600
  0
VERTEX
  8
0
 62
    31
  6
CONTINUOUS
 10
60.715200
 20
166.387200
  0
VERTEX
  8
0
 62
    31
  6
CONTINUOUS
 10
60.732000
 20
166.387200
  0
VERTEX
  8
0
 62
    31
  6
CONTINUOUS
 10
60.732000
 20
168.403200
  0
VERTEX
  8
0
 62
    31
  6
CONTINUOUS
 10
52.953600
 20
168.403200
  0
VERTEX
  8
0
 62
    31
  6
CONTINUOUS
 10
52.953600
 20
169.394400
  0
VERTEX
  8
0
 62
    31
  6
CONTINUOUS
 10
52.970400
 20
169.394400
  0
VERTEX
  8
0
 62
    31
  6
CONTINUOUS
 10
52.970400
 20
171.427200
  0
VERTEX
  8
0
 62
    31
  6
CONTINUOUS
 10
38.337600
 20
171.427200
  0
VERTEX
  8
0
 62
    31
  6
CONTINUOUS
 10
38.337600
 20
169.394400
  0
VERTEX
  8
0
 62
    31
  6
CONTINUOUS
 10
50.937600
 20
169.394400
  0
VERTEX
  8
0
 62
    31
  6
CONTINUOUS
 10
50.937600
 20
166.404000
  0
VERTEX
  8
0
 62
    31
  6
CONTINUOUS
 10
50.954400
 20
166.404000
  0
VERTEX
  8
0
 62
    31
  6
CONTINUOUS
 10
50.954400
 20
166.387200
  0
VERTEX
  8
0
 62
    31
  6
CONTINUOUS
 10
58.699200
 20
166.387200
  0
VERTEX
  8
0
 62
    31
  6
CONTINUOUS
 10
58.699200
 20
163.581600
  0
VERTEX
  8
0
 62
    31
  6
CONTINUOUS
 10
80.959200
 20
163.581600
  0
VERTEX
  8
0
 62
    31
  6
CONTINUOUS
 10
80.959200
 20
167.613600
  0
VERTEX
  8
0
 62
    31
  6
CONTINUOUS
 10
90.736800
 20
167.613600
  0
VERTEX
  8
0
 62
    31
  6
CONTINUOUS
 10
90.736800
 20
168.453600
  0
VERTEX
  8
0
 62
    31
  6
CONTINUOUS
 10
127.461600
 20
168.453600
  0
VERTEX
  8
0
 62
    31
  6
CONTINUOUS
 10
127.461600
 20
172.334400
  0
VERTEX
  8
0
 62
    31
  6
CONTINUOUS
 10
154.476000
 20
172.334400
  0
VERTEX
  8
0
 62
    31
  6
CONTINUOUS
 10
154.476000
 20
174.350400
  0
SEQEND
  8
0
  0
HATCH
  5
 30423
100
AcDbEntity
  8
0
 62
    31
100
AcDbHatch
 10
0.000000
 20
0.000000
 30
0.000000
210
0.000000
220
0.000000
230
0.016800
  2
SOLID
 70
     1
 71
     0
 91
     1
 92
     1
 93
    12
 72
     1
 10
152.476800
 20
172.334400
 11
152.476800
 21
167.395200
 72
     1
 10
152.476800
 20
167.395200
 11
127.461600
 21
167.395200
 72
     1
 10
127.461600
 20
167.395200
 11
127.461600
 21
168.453600
 72
     1
 10
127.461600
 20
168.453600
 11
125.445600
 21
168.453600
 72
     1
 10
125.445600
 20
168.453600
 11
125.445600
 21
165.396000
 72
     1
 10
125.445600
 20
165.396000
 11
154.476000
 21
165.396000
 72
     1
 10
154.476000
 20
165.396000
 11
154.476000
 21
168.352800
 72
     1
 10
154.476000
 20
168.352800
 11
166.639200
 21
168.352800
 72
     1
 10
166.639200
 20
168.352800
 11
166.639200
 21
170.385600
 72
     1
 10
166.639200
 20
170.385600
 11
154.476000
 21
170.385600
 72
     1
 10
154.476000
 20
170.385600
 11
154.476000
 21
172.334400
 72
     1
 10
154.476000
 20
172.334400
 11
152.476800
 21
172.334400
 97
     0
 75
     0
 76
     1
 98
     1
 10
0.000000
 20
0.000000
  0
POLYLINE
  8
0
 62
    31
  6
CONTINUOUS
 66
     1
 40
0.000000
 41
0.000000
 70
     1
  0
VERTEX
  8
0
 62
    31
  6
CONTINUOUS
 10
152.476800
 20
172.334400
  0
VERTEX
  8
0
 62
    31
  6
CONTINUOUS
 10
152.476800
 20
167.395200
  0
VERTEX
  8
0
 62
    31
  6
CONTINUOUS
 10
127.461600
 20
167.395200
  0
VERTEX
  8
0
 62
    31
  6
CONTINUOUS
 10
127.461600
 20
168.453600
  0
VERTEX
  8
0
 62
    31
  6
CONTINUOUS
 10
125.445600
 20
168.453600
  0
VERTEX
  8
0
 62
    31
  6
CONTINUOUS
 10
125.445600
 20
165.396000
  0
VERTEX
  8
0
 62
    31
  6
CONTINUOUS
 10
154.476000
 20
165.396000
  0
VERTEX
  8
0
 62
    31
  6
CONTINUOUS
 10
154.476000
 20
168.352800
  0
VERTEX
  8
0
 62
    31
  6
CONTINUOUS
 10
166.639200
 20
168.352800
  0
VERTEX
  8
0
 62
    31
  6
CONTINUOUS
 10
166.639200
 20
170.385600
  0
VERTEX
  8
0
 62
    31
  6
CONTINUOUS
 10
154.476000
 20
170.385600
  0
VERTEX
  8
0
 62
    31
  6
CONTINUOUS
 10
154.476000
 20
172.334400
  0
SEQEND
  8
0
  0
HATCH
  5
 30424
100
AcDbEntity
  8
0
 62
    31
100
AcDbHatch
 10
0.000000
 20
0.000000
 30
0.000000
210
0.000000
220
0.000000
230
0.016800
  2
SOLID
 70
     1
 71
     0
 91
     1
 92
     1
 93
     8
 72
     1
 10
106.562400
 20
168.453600
 11
106.562400
 21
117.919200
 72
     1
 10
106.562400
 20
117.919200
 11
104.344800
 21
117.919200
 72
     1
 10
104.344800
 20
117.919200
 11
104.344800
 21
115.903200
 72
     1
 10
104.344800
 20
115.903200
 11
110.896800
 21
115.903200
 72
     1
 10
110.896800
 20
115.903200
 11
110.896800
 21
117.919200
 72
     1
 10
110.896800
 20
117.919200
 11
108.612000
 21
117.919200
 72
     1
 10
108.612000
 20
117.919200
 11
108.612000
 21
168.453600
 72
     1
 10
108.612000
 20
168.453600
 11
106.562400
 21
168.453600
 97
     0
 75
     0
 76
     1
 98
     1
 10
0.000000
 20
0.000000
  0
POLYLINE
  8
0
 62
    31
  6
CONTINUOUS
 66
     1
 40
0.000000
 41
0.000000
 70
     1
  0
VERTEX
  8
0
 62
    31
  6
CONTINUOUS
 10
106.562400
 20
168.453600
  0
VERTEX
  8
0
 62
    31
  6
CONTINUOUS
 10
106.562400
 20
117.919200
  0
VERTEX
  8
0
 62
    31
  6
CONTINUOUS
 10
104.344800
 20
117.919200
  0
VERTEX
  8
0
 62
    31
  6
CONTINUOUS
 10
104.344800
 20
115.903200
  0
VERTEX
  8
0
 62
    31
  6
CONTINUOUS
 10
110.896800
 20
115.903200
  0
VERTEX
  8
0
 62
    31
  6
CONTINUOUS
 10
110.896800
 20
117.919200
  0
VERTEX
  8
0
 62
    31
  6
CONTINUOUS
 10
108.612000
 20
117.919200
  0
VERTEX
  8
0
 62
    31
  6
CONTINUOUS
 10
108.612000
 20
168.453600
  0
SEQEND
  8
0
  0
POLYLINE
  8
0
  6
CONTINUOUS
 66
     1
 40
0.000000
 41
0.000000
 70
     1
  0
VERTEX
  8
0
  6
CONTINUOUS
 10
154.459200
 20
174.350400
  0
VERTEX
  8
0
  6
CONTINUOUS
 10
125.445600
 20
174.350400
  0
VERTEX
  8
0
  6
CONTINUOUS
 10
125.445600
 20
170.469600
  0
VERTEX
  8
0
  6
CONTINUOUS
 10
78.943200
 20
170.469600
  0
VERTEX
  8
0
  6
CONTINUOUS
 10
78.943200
 20
165.597600
  0
VERTEX
  8
0
  6
CONTINUOUS
 10
60.698400
 20
165.597600
  0
VERTEX
  8
0
  6
CONTINUOUS
 10
60.715200
 20
168.403200
  0
VERTEX
  8
0
  6
CONTINUOUS
 10
52.936800
 20
168.403200
  0
VERTEX
  8
0
  6
CONTINUOUS
 10
52.953600
 20
171.427200
  0
VERTEX
  8
0
  6
CONTINUOUS
 10
38.337600
 20
171.427200
  0
VERTEX
  8
0
  6
CONTINUOUS
 10
38.337600
 20
169.411200
  0
VERTEX
  8
0
  6
CONTINUOUS
 10
50.937600
 20
169.411200
  0
VERTEX
  8
0
  6
CONTINUOUS
 10
50.954400
 20
166.404000
  0
VERTEX
  8
0
  6
CONTINUOUS
 10
58.699200
 20
166.404000
  0
VERTEX
  8
0
  6
CONTINUOUS
 10
58.699200
 20
163.598400
  0
VERTEX
  8
0
  6
CONTINUOUS
 10
80.942400
 20
163.598400
  0
VERTEX
  8
0
  6
CONTINUOUS
 10
80.942400
 20
167.630400
  0
VERTEX
  8
0
  6
CONTINUOUS
 10
90.720000
 20
167.630400
  0
VERTEX
  8
0
  6
CONTINUOUS
 10
90.720000
 20
168.470400
  0
VERTEX
  8
0
  6
CONTINUOUS
 10
106.562400
 20
168.470400
  0
VERTEX
  8
0
  6
CONTINUOUS
 10
106.562400
 20
117.919200
  0
VERTEX
  8
0
  6
CONTINUOUS
 10
104.344800
 20
117.919200
  0
VERTEX
  8
0
  6
CONTINUOUS
 10
104.344800
 20
115.903200
  0
VERTEX
  8
0
  6
CONTINUOUS
 10
110.880000
 20
115.903200
  0
VERTEX
  8
0
  6
CONTINUOUS
 10
110.880000
 20
117.919200
  0
VERTEX
  8
0
  6
CONTINUOUS
 10
108.595200
 20
117.919200
  0
VERTEX
  8
0
  6
CONTINUOUS
 10
108.595200
 20
168.470400
  0
VERTEX
  8
0
  6
CONTINUOUS
 10
125.445600
 20
168.470400
  0
VERTEX
  8
0
  6
CONTINUOUS
 10
125.445600
 20
165.412800
  0
VERTEX
  8
0
  6
CONTINUOUS
 10
154.459200
 20
165.412800
  0
VERTEX
  8
0
  6
CONTINUOUS
 10
154.459200
 20
168.369600
  0
VERTEX
  8
0
  6
CONTINUOUS
 10
166.622400
 20
168.369600
  0
VERTEX
  8
0
  6
CONTINUOUS
 10
166.622400
 20
170.385600
  0
VERTEX
  8
0
  6
CONTINUOUS
 10
154.459200
 20
170.385600
  0
SEQEND
  8
0
  0
POLYLINE
  8
0
  6
CONTINUOUS
 66
     1
 40
0.000000
 41
0.000000
 70
     1
  0
VERTEX
  8
0
  6
CONTINUOUS
 10
127.444800
 20
172.351200
  0
VERTEX
  8
0
  6
CONTINUOUS
 10
127.444800
 20
167.395200
  0
VERTEX
  8
0
  6
CONTINUOUS
 10
152.476800
 20
167.395200
  0
VERTEX
  8
0
  6
CONTINUOUS
 10
152.476800
 20
172.351200
  0
SEQEND
  8
0
  0
HATCH
  5
 30425
100
AcDbEntity
  8
0
 62
    31
100
AcDbHatch
 10
0.000000
 20
0.000000
 30
0.000000
210
0.000000
220
0.000000
230
0.016800
  2
SOLID
 70
     1
 71
     0
 91
     1
 92
     1
 93
    24
 72
     1
 10
89.174400
 20
101.253600
 11
89.174400
 21
99.237600
 72
     1
 10
89.174400
 20
99.237600
 11
90.283200
 21
99.237600
 72
     1
 10
90.283200
 20
99.237600
 11
90.283200
 21
58.178400
 72
     1
 10
90.283200
 20
58.178400
 11
38.270400
 21
58.178400
 72
     1
 10
38.270400
 20
58.178400
 11
38.270400
 21
56.179200
 72
     1
 10
38.270400
 20
56.179200
 11
92.299200
 21
56.179200
 72
     1
 10
92.299200
 20
56.179200
 11
92.299200
 21
67.922400
 72
     1
 10
92.299200
 20
67.922400
 11
109.116000
 21
67.922400
 72
     1
 10
109.116000
 20
67.922400
 11
109.116000
 21
98.380800
 72
     1
 10
109.116000
 20
98.380800
 11
166.622400
 21
98.380800
 72
     1
 10
166.622400
 20
98.380800
 11
166.622400
 21
100.564800
 72
     1
 10
166.622400
 20
100.564800
 11
156.542400
 21
100.564800
 72
     1
 10
156.542400
 20
100.564800
 11
156.542400
 21
101.236800
 72
     1
 10
156.542400
 20
101.236800
 11
153.703200
 21
101.236800
 72
     1
 10
153.703200
 20
101.236800
 11
153.703200
 21
100.564800
 72
     1
 10
153.703200
 20
100.564800
 11
105.806400
 21
100.564800
 72
     1
 10
105.806400
 20
100.564800
 11
105.806400
 21
98.448000
 72
     1
 10
105.806400
 20
98.448000
 11
107.100000
 21
98.448000
 72
     1
 10
107.100000
 20
98.448000
 11
107.100000
 21
69.938400
 72
     1
 10
107.100000
 20
69.938400
 11
92.299200
 21
69.938400
 72
     1
 10
92.299200
 20
69.938400
 11
92.299200
 21
99.237600
 72
     1
 10
92.299200
 20
99.237600
 11
93.072000
 21
99.237600
 72
     1
 10
93.072000
 20
99.237600
 11
93.072000
 21
101.253600
 72
     1
 10
93.072000
 20
101.253600
 11
89.174400
 21
101.253600
 97
     0
 75
     0
 76
     1
 98
     1
 10
0.000000
 20
0.000000
  0
POLYLINE
  8
0
 62
    31
  6
CONTINUOUS
 66
     1
 40
0.000000
 41
0.000000
 70
     1
  0
VERTEX
  8
0
 62
    31
  6
CONTINUOUS
 10
89.174400
 20
101.253600
  0
VERTEX
  8
0
 62
    31
  6
CONTINUOUS
 10
89.174400
 20
99.237600
  0
VERTEX
  8
0
 62
    31
  6
CONTINUOUS
 10
90.283200
 20
99.237600
  0
VERTEX
  8
0
 62
    31
  6
CONTINUOUS
 10
90.283200
 20
58.178400
  0
VERTEX
  8
0
 62
    31
  6
CONTINUOUS
 10
38.270400
 20
58.178400
  0
VERTEX
  8
0
 62
    31
  6
CONTINUOUS
 10
38.270400
 20
56.179200
  0
VERTEX
  8
0
 62
    31
  6
CONTINUOUS
 10
92.299200
 20
56.179200
  0
VERTEX
  8
0
 62
    31
  6
CONTINUOUS
 10
92.299200
 20
67.922400
  0
VERTEX
  8
0
 62
    31
  6
CONTINUOUS
 10
109.116000
 20
67.922400
  0
VERTEX
  8
0
 62
    31
  6
CONTINUOUS
 10
109.116000
 20
98.380800
  0
VERTEX
  8
0
 62
    31
  6
CONTINUOUS
 10
166.622400
 20
98.380800
  0
VERTEX
  8
0
 62
    31
  6
CONTINUOUS
 10
166.622400
 20
100.564800
  0
VERTEX
  8
0
 62
    31
  6
CONTINUOUS
 10
156.542400
 20
100.564800
  0
VERTEX
  8
0
 62
    31
  6
CONTINUOUS
 10
156.542400
 20
101.236800
  0
VERTEX
  8
0
 62
    31
  6
CONTINUOUS
 10
153.703200
 20
101.236800
  0
VERTEX
  8
0
 62
    31
  6
CONTINUOUS
 10
153.703200
 20
100.564800
  0
VERTEX
  8
0
 62
    31
  6
CONTINUOUS
 10
105.806400
 20
100.564800
  0
VERTEX
  8
0
 62
    31
  6
CONTINUOUS
 10
105.806400
 20
98.448000
  0
VERTEX
  8
0
 62
    31
  6
CONTINUOUS
 10
107.100000
 20
98.448000
  0
VERTEX
  8
0
 62
    31
  6
CONTINUOUS
 10
107.100000
 20
69.938400
  0
VERTEX
  8
0
 62
    31
  6
CONTINUOUS
 10
92.299200
 20
69.938400
  0
VERTEX
  8
0
 62
    31
  6
CONTINUOUS
 10
92.299200
 20
99.237600
  0
VERTEX
  8
0
 62
    31
  6
CONTINUOUS
 10
93.072000
 20
99.237600
  0
VERTEX
  8
0
 62
    31
  6
CONTINUOUS
 10
93.072000
 20
101.253600
  0
SEQEND
  8
0
  0
HATCH
  5
 30426
100
AcDbEntity
  8
0
 62
    31
100
AcDbHatch
 10
0.000000
 20
0.000000
 30
0.000000
210
0.000000
220
0.000000
230
0.016800
  2
SOLID
 70
     1
 71
     0
 91
     1
 92
     1
 93
     8
 72
     1
 10
72.676800
 20
112.526400
 11
72.676800
 21
101.270400
 72
     1
 10
72.676800
 20
101.270400
 11
38.354400
 21
101.270400
 72
     1
 10
38.354400
 20
101.270400
 11
38.354400
 21
99.254400
 72
     1
 10
38.354400
 20
99.254400
 11
76.104000
 21
99.254400
 72
     1
 10
76.104000
 20
99.254400
 11
76.104000
 21
101.270400
 72
     1
 10
76.104000
 20
101.270400
 11
74.692800
 21
101.270400
 72
     1
 10
74.692800
 20
101.270400
 11
74.692800
 21
112.526400
 72
     1
 10
74.692800
 20
112.526400
 11
72.676800
 21
112.526400
 97
     0
 75
     0
 76
     1
 98
     1
 10
0.000000
 20
0.000000
  0
POLYLINE
  8
0
 62
    31
  6
CONTINUOUS
 66
     1
 40
0.000000
 41
0.000000
 70
     1
  0
VERTEX
  8
0
 62
    31
  6
CONTINUOUS
 10
72.676800
 20
112.526400
  0
VERTEX
  8
0
 62
    31
  6
CONTINUOUS
 10
72.676800
 20
101.270400
  0
VERTEX
  8
0
 62
    31
  6
CONTINUOUS
 10
38.354400
 20
101.270400
  0
VERTEX
  8
0
 62
    31
  6
CONTINUOUS
 10
38.354400
 20
99.254400
  0
VERTEX
  8
0
 62
    31
  6
CONTINUOUS
 10
76.104000
 20
99.254400
  0
VERTEX
  8
0
 62
    31
  6
CONTINUOUS
 10
76.104000
 20
101.270400
  0
VERTEX
  8
0
 62
    31
  6
CONTINUOUS
 10
74.692800
 20
101.270400
  0
VERTEX
  8
0
 62
    31
  6
CONTINUOUS
 10
74.692800
 20
112.526400
  0
SEQEND
  8
0
  0
POLYLINE
  8
0
  6
CONTINUOUS
 66
     1
 40
0.000000
 41
0.000000
 70
     1
  0
VERTEX
  8
0
  6
CONTINUOUS
 10
74.676000
 20
101.270400
  0
VERTEX
  8
0
  6
CONTINUOUS
 10
74.676000
 20
112.526400
  0
VERTEX
  8
0
  6
CONTINUOUS
 10
72.676800
 20
112.526400
  0
VERTEX
  8
0
  6
CONTINUOUS
 10
72.676800
 20
101.270400
  0
VERTEX
  8
0
  6
CONTINUOUS
 10
38.354400
 20
101.270400
  0
VERTEX
  8
0
  6
CONTINUOUS
 10
38.354400
 20
99.271200
  0
VERTEX
  8
0
  6
CONTINUOUS
 10
76.087200
 20
99.271200
  0
VERTEX
  8
0
  6
CONTINUOUS
 10
76.087200
 20
101.270400
  0
SEQEND
  8
0
  0
POLYLINE
  8
0
  6
CONTINUOUS
 66
     1
 40
0.000000
 41
0.000000
 70
     1
  0
VERTEX
  8
0
  6
CONTINUOUS
 10
93.055200
 20
99.254400
  0
VERTEX
  8
0
  6
CONTINUOUS
 10
93.055200
 20
101.253600
  0
VERTEX
  8
0
  6
CONTINUOUS
 10
89.174400
 20
101.253600
  0
VERTEX
  8
0
  6
CONTINUOUS
 10
89.174400
 20
99.254400
  0
VERTEX
  8
0
  6
CONTINUOUS
 10
90.283200
 20
99.254400
  0
VERTEX
  8
0
  6
CONTINUOUS
 10
90.283200
 20
58.178400
  0
VERTEX
  8
0
  6
CONTINUOUS
 10
38.270400
 20
58.178400
  0
VERTEX
  8
0
  6
CONTINUOUS
 10
38.270400
 20
56.179200
  0
VERTEX
  8
0
  6
CONTINUOUS
 10
92.282400
 20
56.179200
  0
VERTEX
  8
0
  6
CONTINUOUS
 10
92.282400
 20
58.178400
  0
VERTEX
  8
0
  6
CONTINUOUS
 10
92.282400
 20
67.939200
  0
VERTEX
  8
0
  6
CONTINUOUS
 10
109.099200
 20
67.939200
  0
VERTEX
  8
0
  6
CONTINUOUS
 10
109.099200
 20
69.938400
  0
VERTEX
  8
0
  6
CONTINUOUS
 10
109.099200
 20
98.397600
  0
VERTEX
  8
0
  6
CONTINUOUS
 10
166.605600
 20
98.397600
  0
VERTEX
  8
0
  6
CONTINUOUS
 10
166.605600
 20
100.564800
  0
VERTEX
  8
0
  6
CONTINUOUS
 10
156.525600
 20
100.564800
  0
VERTEX
  8
0
  6
CONTINUOUS
 10
156.525600
 20
101.236800
  0
VERTEX
  8
0
  6
CONTINUOUS
 10
153.703200
 20
101.236800
  0
VERTEX
  8
0
  6
CONTINUOUS
 10
153.703200
 20
100.564800
  0
VERTEX
  8
0
  6
CONTINUOUS
 10
105.806400
 20
100.564800
  0
VERTEX
  8
0
  6
CONTINUOUS
 10
105.806400
 20
98.464800
  0
VERTEX
  8
0
  6
CONTINUOUS
 10
107.100000
 20
98.464800
  0
VERTEX
  8
0
  6
CONTINUOUS
 10
107.100000
 20
69.938400
  0
VERTEX
  8
0
  6
CONTINUOUS
 10
92.282400
 20
69.938400
  0
VERTEX
  8
0
  6
CONTINUOUS
 10
92.282400
 20
99.254400
  0
SEQEND
  8
0
  0
HATCH
  5
 30427
100
AcDbEntity
  8
0
 62
    31
100
AcDbHatch
 10
0.000000
 20
0.000000
 30
0.000000
210
0.000000
220
0.000000
230
0.016800
  2
SOLID
 70
     1
 71
     0
 91
     1
 92
     1
 93
    14
 72
     1
 10
92.853600
 20
117.986400
 11
92.366400
 21
117.986400
 72
     1
 10
92.366400
 20
117.986400
 11
92.366400
 21
125.294400
 72
     1
 10
92.366400
 20
125.294400
 11
92.366400
 21
127.293600
 72
     1
 10
92.366400
 20
127.293600
 11
38.354400
 21
127.293600
 72
     1
 10
38.354400
 20
127.293600
 11
38.354400
 21
125.294400
 72
     1
 10
38.354400
 20
125.294400
 11
72.643200
 21
125.294400
 72
     1
 10
72.643200
 20
125.294400
 11
72.643200
 21
124.168800
 72
     1
 10
72.643200
 20
124.168800
 11
74.659200
 21
124.168800
 72
     1
 10
74.659200
 20
124.168800
 11
74.659200
 21
125.294400
 72
     1
 10
74.659200
 20
125.294400
 11
90.367200
 21
125.294400
 72
     1
 10
90.367200
 20
125.294400
 11
90.367200
 21
115.869600
 72
     1
 10
90.367200
 20
115.869600
 11
92.366400
 21
115.869600
 72
     1
 10
92.366400
 20
115.869600
 11
92.853600
 21
115.869600
 72
     1
 10
92.853600
 20
115.869600
 11
92.853600
 21
117.986400
 97
     0
 75
     0
 76
     1
 98
     1
 10
0.000000
 20
0.000000
  0
POLYLINE
  8
0
  6
CONTINUOUS
 66
     1
 40
0.000000
 41
0.000000
 70
     1
  0
VERTEX
  8
0
  6
CONTINUOUS
 10
92.853600
 20
117.986400
  0
VERTEX
  8
0
  6
CONTINUOUS
 10
92.366400
 20
117.986400
  0
VERTEX
  8
0
  6
CONTINUOUS
 10
92.366400
 20
125.294400
  0
VERTEX
  8
0
  6
CONTINUOUS
 10
92.366400
 20
127.293600
  0
VERTEX
  8
0
  6
CONTINUOUS
 10
38.354400
 20
127.293600
  0
VERTEX
  8
0
  6
CONTINUOUS
 10
38.354400
 20
125.294400
  0
VERTEX
  8
0
  6
CONTINUOUS
 10
72.643200
 20
125.294400
  0
VERTEX
  8
0
  6
CONTINUOUS
 10
72.643200
 20
124.168800
  0
VERTEX
  8
0
  6
CONTINUOUS
 10
74.659200
 20
124.168800
  0
VERTEX
  8
0
  6
CONTINUOUS
 10
74.659200
 20
125.294400
  0
VERTEX
  8
0
  6
CONTINUOUS
 10
90.367200
 20
125.294400
  0
VERTEX
  8
0
  6
CONTINUOUS
 10
90.367200
 20
115.869600
  0
VERTEX
  8
0
  6
CONTINUOUS
 10
92.366400
 20
115.869600
  0
VERTEX
  8
0
  6
CONTINUOUS
 10
92.853600
 20
115.869600
  0
SEQEND
  8
0
  0
MTEXT
  5
 30428
100
AcDbEntity
100
AcDbMText
 71
     1
 72
     5
  8
0
 10
138.969600
 20
139.759200
 40
2.818462
  1
\fTimes New Roman|b0|i0|c0|p18;Living room
 41
0.000000
  0
MTEXT
  5
 30429
100
AcDbEntity
100
AcDbMText
 71
     1
 72
     5
  8
0
 10
60.580800
 20
139.960800
 40
2.818462
  1
\fTimes New Roman|b0|i0|c0|p18;Kitchen
 41
0.000000
  0
MTEXT
  5
 30430
100
AcDbEntity
100
AcDbMText
 71
     1
 72
     5
  8
0
 10
49.728000
 20
108.108000
 40
2.818462
  1
\fTimes New Roman|b0|i0|c0|p18;Bathroom
 41
0.000000
  0
MTEXT
  5
 30431
100
AcDbEntity
100
AcDbMText
 71
     1
 72
     5
  8
0
 10
51.004800
 20
73.029600
 40
2.818462
  1
\fTimes New Roman|b0|i0|c0|p18;Study
 41
0.000000
  0
MTEXT
  5
 30432
100
AcDbEntity
100
AcDbMText
 71
     1
 72
     5
  8
0
 10
95.205600
 20
85.999200
 40
2.818462
  1
\fTimes New Roman|b0|i0|c0|p18;Toilet
 41
0.000000
  0
MTEXT
  5
 30433
100
AcDbEntity
100
AcDbMText
 71
     1
 72
     5
  8
0
 10
129.830400
 20
105.420000
 40
2.818462
  1
\fTimes New Roman|b0|i0|c0|p18;Hall
 41
0.000000
  0
HATCH
  5
 30434
100
AcDbEntity
  8
0
 62
     7
100
AcDbHatch
 10
0.000000
 20
0.000000
 30
0.000000
210
0.000000
220
0.000000
230
0.016800
  2
SOLID
 70
     1
 71
     0
 91
     1
 92
     1
 93
     4
 72
     1
 10
31.029600
 20
31.903200
 11
44.352000
 21
31.903200
 72
     1
 10
44.352000
 20
31.903200
 11
44.352000
 21
31.617600
 72
     1
 10
44.352000
 20
31.617600
 11
31.029600
 21
31.617600
 72
     1
 10
31.029600
 20
31.617600
 11
31.029600
 21
31.903200
 97
     0
 75
     0
 76
     1
 98
     1
 10
0.000000
 20
0.000000
  0
POLYLINE
  8
0
  6
CONTINUOUS
 66
     1
 40
0.000000
 41
0.000000
 70
     1
  0
VERTEX
  8
0
  6
CONTINUOUS
 10
31.029600
 20
31.903200
  0
VERTEX
  8
0
  6
CONTINUOUS
 10
44.352000
 20
31.903200
  0
VERTEX
  8
0
  6
CONTINUOUS
 10
44.352000
 20
31.617600
  0
VERTEX
  8
0
  6
CONTINUOUS
 10
31.029600
 20
31.617600
  0
SEQEND
  8
0
  0
HATCH
  5
 30435
100
AcDbEntity
  8
0
100
AcDbHatch
 10
0.000000
 20
0.000000
 30
0.000000
210
0.000000
220
0.000000
230
0.016800
  2
SOLID
 70
     1
 71
     0
 91
     1
 92
     1
 93
     4
 72
     1
 10
44.352000
 20
31.903200
 11
57.691200
 21
31.903200
 72
     1
 10
57.691200
 20
31.903200
 11
57.691200
 21
31.617600
 72
     1
 10
57.691200
 20
31.617600
 11
44.352000
 21
31.617600
 72
     1
 10
44.352000
 20
31.617600
 11
44.352000
 21
31.903200
 97
     0
 75
     0
 76
     1
 98
     1
 10
0.000000
 20
0.000000
  0
POLYLINE
  8
0
  6
CONTINUOUS
 66
     1
 40
0.000000
 41
0.000000
 70
     1
  0
VERTEX
  8
0
  6
CONTINUOUS
 10
44.352000
 20
31.903200
  0
VERTEX
  8
0
  6
CONTINUOUS
 10
57.691200
 20
31.903200
  0
VERTEX
  8
0
  6
CONTINUOUS
 10
57.691200
 20
31.617600
  0
VERTEX
  8
0
  6
CONTINUOUS
 10
44.352000
 20
31.617600
  0
SEQEND
  8
0
  0
HATCH
  5
 30436
100
AcDbEntity
  8
0
 62
     7
100
AcDbHatch
 10
0.000000
 20
0.000000
 30
0.000000
210
0.000000
220
0.000000
230
0.016800
  2
SOLID
 70
     1
 71
     0
 91
     1
 92
     1
 93
     4
 72
     1
 10
57.691200
 20
31.903200
 11
71.030400
 21
31.903200
 72
     1
 10
71.030400
 20
31.903200
 11
71.030400
 21
31.617600
 72
     1
 10
71.030400
 20
31.617600
 11
57.691200
 21
31.617600
 72
     1
 10
57.691200
 20
31.617600
 11
57.691200
 21
31.903200
 97
     0
 75
     0
 76
     1
 98
     1
 10
0.000000
 20
0.000000
  0
POLYLINE
  8
0
  6
CONTINUOUS
 66
     1
 40
0.000000
 41
0.000000
 70
     1
  0
VERTEX
  8
0
  6
CONTINUOUS
 10
57.691200
 20
31.903200
  0
VERTEX
  8
0
  6
CONTINUOUS
 10
71.030400
 20
31.903200
  0
VERTEX
  8
0
  6
CONTINUOUS
 10
71.030400
 20
31.617600
  0
VERTEX
  8
0
  6
CONTINUOUS
 10
57.691200
 20
31.617600
  0
SEQEND
  8
0
  0
HATCH
  5
 30437
100
AcDbEntity
  8
0
100
AcDbHatch
 10
0.000000
 20
0.000000
 30
0.000000
210
0.000000
220
0.000000
230
0.016800
  2
SOLID
 70
     1
 71
     0
 91
     1
 92
     1
 93
     4
 72
     1
 10
71.030400
 20
31.903200
 11
84.352800
 21
31.903200
 72
     1
 10
84.352800
 20
31.903200
 11
84.352800
 21
31.617600
 72
     1
 10
84.352800
 20
31.617600
 11
71.030400
 21
31.617600
 72
     1
 10
71.030400
 20
31.617600
 11
71.030400
 21
31.903200
 97
     0
 75
     0
 76
     1
 98
     1
 10
0.000000
 20
0.000000
  0
POLYLINE
  8
0
  6
CONTINUOUS
 66
     1
 40
0.000000
 41
0.000000
 70
     1
  0
VERTEX
  8
0
  6
CONTINUOUS
 10
71.030400
 20
31.903200
  0
VERTEX
  8
0
  6
CONTINUOUS
 10
84.352800
 20
31.903200
  0
VERTEX
  8
0
  6
CONTINUOUS
 10
84.352800
 20
31.617600
  0
VERTEX
  8
0
  6
CONTINUOUS
 10
71.030400
 20
31.617600
  0
SEQEND
  8
0
  0
HATCH
  5
 30438
100
AcDbEntity
  8
0
 62
     7
100
AcDbHatch
 10
0.000000
 20
0.000000
 30
0.000000
210
0.000000
220
0.000000
230
0.016800
  2
SOLID
 70
     1
 71
     0
 91
     1
 92
     1
 93
     4
 72
     1
 10
84.352800
 20
31.903200
 11
97.692000
 21
31.903200
 72
     1
 10
97.692000
 20
31.903200
 11
97.692000
 21
31.617600
 72
     1
 10
97.692000
 20
31.617600
 11
84.352800
 21
31.617600
 72
     1
 10
84.352800
 20
31.617600
 11
84.352800
 21
31.903200
 97
     0
 75
     0
 76
     1
 98
     1
 10
0.000000
 20
0.000000
  0
POLYLINE
  8
0
  6
CONTINUOUS
 66
     1
 40
0.000000
 41
0.000000
 70
     1
  0
VERTEX
  8
0
  6
CONTINUOUS
 10
84.352800
 20
31.903200
  0
VERTEX
  8
0
  6
CONTINUOUS
 10
97.692000
 20
31.903200
  0
VERTEX
  8
0
  6
CONTINUOUS
 10
97.692000
 20
31.617600
  0
VERTEX
  8
0
  6
CONTINUOUS
 10
84.352800
 20
31.617600
  0
SEQEND
  8
0
  0
HATCH
  5
 30439
100
AcDbEntity
  8
0
100
AcDbHatch
 10
0.000000
 20
0.000000
 30
0.000000
210
0.000000
220
0.000000
230
0.016800
  2
SOLID
 70
     1
 71
     0
 91
     1
 92
     1
 93
     4
 72
     1
 10
97.692000
 20
31.903200
 11
111.031200
 21
31.903200
 72
     1
 10
111.031200
 20
31.903200
 11
111.031200
 21
31.617600
 72
     1
 10
111.031200
 20
31.617600
 11
97.692000
 21
31.617600
 72
     1
 10
97.692000
 20
31.617600
 11
97.692000
 21
31.903200
 97
     0
 75
     0
 76
     1
 98
     1
 10
0.000000
 20
0.000000
  0
POLYLINE
  8
0
  6
CONTINUOUS
 66
     1
 40
0.000000
 41
0.000000
 70
     1
  0
VERTEX
  8
0
  6
CONTINUOUS
 10
97.692000
 20
31.903200
  0
VERTEX
  8
0
  6
CONTINUOUS
 10
111.031200
 20
31.903200
  0
VERTEX
  8
0
  6
CONTINUOUS
 10
111.031200
 20
31.617600
  0
VERTEX
  8
0
  6
CONTINUOUS
 10
97.692000
 20
31.617600
  0
SEQEND
  8
0
  0
HATCH
  5
 30440
100
AcDbEntity
  8
0
 62
     7
100
AcDbHatch
 10
0.000000
 20
0.000000
 30
0.000000
210
0.000000
220
0.000000
230
0.016800
  2
SOLID
 70
     1
 71
     0
 91
     1
 92
     1
 93
     4
 72
     1
 10
111.031200
 20
31.903200
 11
124.353600
 21
31.903200
 72
     1
 10
124.353600
 20
31.903200
 11
124.353600
 21
31.617600
 72
     1
 10
124.353600
 20
31.617600
 11
111.031200
 21
31.617600
 72
     1
 10
111.031200
 20
31.617600
 11
111.031200
 21
31.903200
 97
     0
 75
     0
 76
     1
 98
     1
 10
0.000000
 20
0.000000
  0
POLYLINE
  8
0
  6
CONTINUOUS
 66
     1
 40
0.000000
 41
0.000000
 70
     1
  0
VERTEX
  8
0
  6
CONTINUOUS
 10
111.031200
 20
31.903200
  0
VERTEX
  8
0
  6
CONTINUOUS
 10
124.353600
 20
31.903200
  0
VERTEX
  8
0
  6
CONTINUOUS
 10
124.353600
 20
31.617600
  0
VERTEX
  8
0
  6
CONTINUOUS
 10
111.031200
 20
31.617600
  0
SEQEND
  8
0
  0
HATCH
  5
 30441
100
AcDbEntity
  8
0
100
AcDbHatch
 10
0.000000
 20
0.000000
 30
0.000000
210
0.000000
220
0.000000
230
0.016800
  2
SOLID
 70
     1
 71
     0
 91
     1
 92
     1
 93
     4
 72
     1
 10
124.353600
 20
31.903200
 11
137.692800
 21
31.903200
 72
     1
 10
137.692800
 20
31.903200
 11
137.692800
 21
31.617600
 72
     1
 10
137.692800
 20
31.617600
 11
124.353600
 21
31.617600
 72
     1
 10
124.353600
 20
31.617600
 11
124.353600
 21
31.903200
 97
     0
 75
     0
 76
     1
 98
     1
 10
0.000000
 20
0.000000
  0
POLYLINE
  8
0
  6
CONTINUOUS
 66
     1
 40
0.000000
 41
0.000000
 70
     1
  0
VERTEX
  8
0
  6
CONTINUOUS
 10
124.353600
 20
31.903200
  0
VERTEX
  8
0
  6
CONTINUOUS
 10
137.692800
 20
31.903200
  0
VERTEX
  8
0
  6
CONTINUOUS
 10
137.692800
 20
31.617600
  0
VERTEX
  8
0
  6
CONTINUOUS
 10
124.353600
 20
31.617600
  0
SEQEND
  8
0
  0
HATCH
  5
 30442
100
AcDbEntity
  8
0
 62
     7
100
AcDbHatch
 10
0.000000
 20
0.000000
 30
0.000000
210
0.000000
220
0.000000
230
0.016800
  2
SOLID
 70
     1
 71
     0
 91
     1
 92
     1
 93
     4
 72
     1
 10
137.692800
 20
31.903200
 11
151.032000
 21
31.903200
 72
     1
 10
151.032000
 20
31.903200
 11
151.032000
 21
31.617600
 72
     1
 10
151.032000
 20
31.617600
 11
137.692800
 21
31.617600
 72
     1
 10
137.692800
 20
31.617600
 11
137.692800
 21
31.903200
 97
     0
 75
     0
 76
     1
 98
     1
 10
0.000000
 20
0.000000
  0
POLYLINE
  8
0
  6
CONTINUOUS
 66
     1
 40
0.000000
 41
0.000000
 70
     1
  0
VERTEX
  8
0
  6
CONTINUOUS
 10
137.692800
 20
31.903200
  0
VERTEX
  8
0
  6
CONTINUOUS
 10
151.032000
 20
31.903200
  0
VERTEX
  8
0
  6
CONTINUOUS
 10
151.032000
 20
31.617600
  0
VERTEX
  8
0
  6
CONTINUOUS
 10
137.692800
 20
31.617600
  0
SEQEND
  8
0
  0
HATCH
  5
 30443
100
AcDbEntity
  8
0
100
AcDbHatch
 10
0.000000
 20
0.000000
 30
0.000000
210
0.000000
220
0.000000
230
0.016800
  2
SOLID
 70
     1
 71
     0
 91
     1
 92
     1
 93
     4
 72
     1
 10
151.032000
 20
31.903200
 11
164.354400
 21
31.903200
 72
     1
 10
164.354400
 20
31.903200
 11
164.354400
 21
31.617600
 72
     1
 10
164.354400
 20
31.617600
 11
151.032000
 21
31.617600
 72
     1
 10
151.032000
 20
31.617600
 11
151.032000
 21
31.903200
 97
     0
 75
     0
 76
     1
 98
     1
 10
0.000000
 20
0.000000
  0
POLYLINE
  8
0
  6
CONTINUOUS
 66
     1
 40
0.000000
 41
0.000000
 70
     1
  0
VERTEX
  8
0
  6
CONTINUOUS
 10
151.032000
 20
31.903200
  0
VERTEX
  8
0
  6
CONTINUOUS
 10
164.354400
 20
31.903200
  0
VERTEX
  8
0
  6
CONTINUOUS
 10
164.354400
 20
31.617600
  0
VERTEX
  8
0
  6
CONTINUOUS
 10
151.032000
 20
31.617600
  0
SEQEND
  8
0
  0
HATCH
  5
 30444
100
AcDbEntity
  8
0
 62
     7
100
AcDbHatch
 10
0.000000
 20
0.000000
 30
0.000000
210
0.000000
220
0.000000
230
0.016800
  2
SOLID
 70
     1
 71
     0
 91
     1
 92
     1
 93
     4
 72
     1
 10
164.354400
 20
31.903200
 11
177.693600
 21
31.903200
 72
     1
 10
177.693600
 20
31.903200
 11
177.693600
 21
31.617600
 72
     1
 10
177.693600
 20
31.617600
 11
164.354400
 21
31.617600
 72
     1
 10
164.354400
 20
31.617600
 11
164.354400
 21
31.903200
 97
     0
 75
     0
 76
     1
 98
     1
 10
0.000000
 20
0.000000
  0
POLYLINE
  8
0
  6
CONTINUOUS
 66
     1
 40
0.000000
 41
0.000000
 70
     1
  0
VERTEX
  8
0
  6
CONTINUOUS
 10
164.354400
 20
31.903200
  0
VERTEX
  8
0
  6
CONTINUOUS
 10
177.693600
 20
31.903200
  0
VERTEX
  8
0
  6
CONTINUOUS
 10
177.693600
 20
31.617600
  0
VERTEX
  8
0
  6
CONTINUOUS
 10
164.354400
 20
31.617600
  0
SEQEND
  8
0
  0
MTEXT
  5
 30445
100
AcDbEntity
100
AcDbMText
 71
     1
 72
     5
  8
0
 10
30.508800
 20
33.583200
 40
2.875114
  1
\fArial|b0|i0|c0|p18;Scale:metres
 41
0.000000
  0
MTEXT
  5
 30446
100
AcDbEntity
100
AcDbMText
 71
     1
 72
     5
  8
0
 10
30.811200
 20
29.013600
 40
1.557944
  1
\fArial|b0|i0|c0|p18;0
 41
0.000000
  0
MTEXT
  5
 30447
100
AcDbEntity
100
AcDbMText
 71
     1
 72
     5
  8
0
 10
44.083200
 20
29.013600
 40
1.557944
  1
\fArial|b0|i0|c0|p18;1
 41
0.000000
  0
MTEXT
  5
 30448
100
AcDbEntity
100
AcDbMText
 71
     1
 72
     5
  8
0
 10
57.355200
 20
29.013600
 40
1.557944
  1
\fArial|b0|i0|c0|p18;2
 41
0.000000
  0
MTEXT
  5
 30449
100
AcDbEntity
100
AcDbMText
 71
     1
 72
     5
  8
0
 10
70.644000
 20
29.030400
 40
1.557944
  1
\fArial|b0|i0|c0|p18;3
 41
0.000000
  0
MTEXT
  5
 30450
100
AcDbEntity
100
AcDbMText
 71
     1
 72
     5
  8
0
 10
83.916000
 20
29.030400
 40
1.557944
  1
\fArial|b0|i0|c0|p18;4
 41
0.000000
  0
MTEXT
  5
 30451
100
AcDbEntity
100
AcDbMText
 71
     1
 72
     5
  8
0
 10
97.188000
 20
29.047200
 40
1.557944
  1
\fArial|b0|i0|c0|p18;5
 41
0.000000
  0
MTEXT
  5
 30452
100
AcDbEntity
100
AcDbMText
 71
     1
 72
     5
  8
0
 10
110.460000
 20
29.013600
 40
1.557944
  1
\fArial|b0|i0|c0|p18;6
 41
0.000000
  0
MTEXT
  5
 30453
100
AcDbEntity
100
AcDbMText
 71
     1
 72
     5
  8
0
 10
123.732000
 20
29.013600
 40
1.557944
  1
\fArial|b0|i0|c0|p18;7
 41
0.000000
  0
MTEXT
  5
 30454
100
AcDbEntity
100
AcDbMText
 71
     1
 72
     5
  8
0
 10
137.004000
 20
29.030400
 40
1.557944
  1
\fArial|b0|i0|c0|p18;8
 41
0.000000
  0
MTEXT
  5
 30455
100
AcDbEntity
100
AcDbMText
 71
     1
 72
     5
  8
0
 10
150.276000
 20
29.030400
 40
1.557944
  1
\fArial|b0|i0|c0|p18;9
 41
0.000000
  0
MTEXT
  5
 30456
100
AcDbEntity
100
AcDbMText
 71
     1
 72
     5
  8
0
 10
163.548000
 20
28.694400
 40
1.557944
  1
\fArial|b0|i0|c0|p18;10
 41
0.000000
  0
HATCH
  5
 30457
100
AcDbEntity
  8
0
 62
     7
100
AcDbHatch
 10
0.000000
 20
0.000000
 30
0.000000
210
0.000000
220
0.000000
230
0.016800
  2
SOLID
 70
     1
 71
     0
 91
     1
 92
     1
 93
     4
 72
     1
 10
222.650400
 20
51.391200
 11
219.458400
 21
51.391200
 72
     1
 10
219.458400
 20
51.391200
 11
219.458400
 21
50.971200
 72
     1
 10
219.458400
 20
50.971200
 11
222.650400
 21
50.971200
 72
     1
 10
222.650400
 20
50.971200
 11
222.650400
 21
51.391200
 97
     0
 75
     0
 76
     1
 98
     1
 10
0.000000
 20
0.000000
  0
POLYLINE
  8
0
  6
CONTINUOUS
 66
     1
 40
0.000000
 41
0.000000
 70
     1
  0
VERTEX
  8
0
  6
CONTINUOUS
 10
222.650400
 20
51.391200
  0
VERTEX
  8
0
  6
CONTINUOUS
 10
219.458400
 20
51.391200
  0
VERTEX
  8
0
  6
CONTINUOUS
 10
219.458400
 20
50.971200
  0
VERTEX
  8
0
  6
CONTINUOUS
 10
222.650400
 20
50.971200
  0
SEQEND
  8
0
  0
HATCH
  5
 30458
100
AcDbEntity
  8
0
 62
     7
100
AcDbHatch
 10
0.000000
 20
0.000000
 30
0.000000
210
0.000000
220
0.000000
230
0.016800
  2
SOLID
 70
     1
 71
     0
 91
     1
 92
     1
 93
     4
 72
     1
 10
228.530400
 20
54.062400
 11
222.381600
 21
54.062400
 72
     1
 10
222.381600
 20
54.062400
 11
222.381600
 21
53.642400
 72
     1
 10
222.381600
 20
53.642400
 11
228.530400
 21
53.642400
 72
     1
 10
228.530400
 20
53.642400
 11
228.530400
 21
54.062400
 97
     0
 75
     0
 76
     1
 98
     1
 10
0.000000
 20
0.000000
  0
POLYLINE
  8
0
  6
CONTINUOUS
 66
     1
 40
0.000000
 41
0.000000
 70
     1
  0
VERTEX
  8
0
  6
CONTINUOUS
 10
228.530400
 20
54.062400
  0
VERTEX
  8
0
  6
CONTINUOUS
 10
222.381600
 20
54.062400
  0
VERTEX
  8
0
  6
CONTINUOUS
 10
222.381600
 20
53.642400
  0
VERTEX
  8
0
  6
CONTINUOUS
 10
228.530400
 20
53.642400
  0
SEQEND
  8
0
  0
HATCH
  5
 30459
100
AcDbEntity
  8
0
 62
     7
100
AcDbHatch
 10
0.000000
 20
0.000000
 30
0.000000
210
0.000000
220
0.000000
230
0.016800
  2
SOLID
 70
     1
 71
     0
 91
     1
 92
     1
 93
     4
 72
     1
 10
236.712000
 20
56.733600
 11
223.507200
 21
56.733600
 72
     1
 10
223.507200
 20
56.733600
 11
223.507200
 21
56.296800
 72
     1
 10
223.507200
 20
56.296800
 11
236.712000
 21
56.296800
 72
     1
 10
236.712000
 20
56.296800
 11
236.712000
 21
56.733600
 97
     0
 75
     0
 76
     1
 98
     1
 10
0.000000
 20
0.000000
  0
POLYLINE
  8
0
  6
CONTINUOUS
 66
     1
 40
0.000000
 41
0.000000
 70
     1
  0
VERTEX
  8
0
  6
CONTINUOUS
 10
236.712000
 20
56.733600
  0
VERTEX
  8
0
  6
CONTINUOUS
 10
223.507200
 20
56.733600
  0
VERTEX
  8
0
  6
CONTINUOUS
 10
223.507200
 20
56.296800
  0
VERTEX
  8
0
  6
CONTINUOUS
 10
236.712000
 20
56.296800
  0
SEQEND
  8
0
  0
HATCH
  5
 30460
100
AcDbEntity
  8
0
 62
     7
100
AcDbHatch
 10
0.000000
 20
0.000000
 30
0.000000
210
0.000000
220
0.000000
230
0.016800
  2
SOLID
 70
     1
 71
     0
 91
     1
 92
     1
 93
     4
 72
     1
 10
236.712000
 20
59.404800
 11
224.364000
 21
59.404800
 72
     1
 10
224.364000
 20
59.404800
 11
224.364000
 21
58.968000
 72
     1
 10
224.364000
 20
58.968000
 11
236.712000
 21
58.968000
 72
     1
 10
236.712000
 20
58.968000
 11
236.712000
 21
59.404800
 97
     0
 75
     0
 76
     1
 98
     1
 10
0.000000
 20
0.000000
  0
POLYLINE
  8
0
  6
CONTINUOUS
 66
     1
 40
0.000000
 41
0.000000
 70
     1
  0
VERTEX
  8
0
  6
CONTINUOUS
 10
236.712000
 20
59.404800
  0
VERTEX
  8
0
  6
CONTINUOUS
 10
224.364000
 20
59.404800
  0
VERTEX
  8
0
  6
CONTINUOUS
 10
224.364000
 20
58.968000
  0
VERTEX
  8
0
  6
CONTINUOUS
 10
236.712000
 20
58.968000
  0
SEQEND
  8
0
  0
HATCH
  5
 30461
100
AcDbEntity
  8
0
 62
     7
100
AcDbHatch
 10
0.000000
 20
0.000000
 30
0.000000
210
0.000000
220
0.000000
230
0.016800
  2
SOLID
 70
     1
 71
     0
 91
     1
 92
     1
 93
     4
 72
     1
 10
236.712000
 20
62.059200
 11
224.364000
 21
62.059200
 72
     1
 10
224.364000
 20
62.059200
 11
224.364000
 21
61.639200
 72
     1
 10
224.364000
 20
61.639200
 11
236.712000
 21
61.639200
 72
     1
 10
236.712000
 20
61.639200
 11
236.712000
 21
62.059200
 97
     0
 75
     0
 76
     1
 98
     1
 10
0.000000
 20
0.000000
  0
POLYLINE
  8
0
  6
CONTINUOUS
 66
     1
 40
0.000000
 41
0.000000
 70
     1
  0
VERTEX
  8
0
  6
CONTINUOUS
 10
236.712000
 20
62.059200
  0
VERTEX
  8
0
  6
CONTINUOUS
 10
224.364000
 20
62.059200
  0
VERTEX
  8
0
  6
CONTINUOUS
 10
224.364000
 20
61.639200
  0
VERTEX
  8
0
  6
CONTINUOUS
 10
236.712000
 20
61.639200
  0
SEQEND
  8
0
  0
HATCH
  5
 30462
100
AcDbEntity
  8
0
 62
     7
100
AcDbHatch
 10
0.000000
 20
0.000000
 30
0.000000
210
0.000000
220
0.000000
230
0.016800
  2
SOLID
 70
     1
 71
     0
 91
     1
 92
     1
 93
     4
 72
     1
 10
236.712000
 20
64.730400
 11
224.364000
 21
64.730400
 72
     1
 10
224.364000
 20
64.730400
 11
224.364000
 21
64.310400
 72
     1
 10
224.364000
 20
64.310400
 11
236.712000
 21
64.310400
 72
     1
 10
236.712000
 20
64.310400
 11
236.712000
 21
64.730400
 97
     0
 75
     0
 76
     1
 98
     1
 10
0.000000
 20
0.000000
  0
POLYLINE
  8
0
  6
CONTINUOUS
 66
     1
 40
0.000000
 41
0.000000
 70
     1
  0
VERTEX
  8
0
  6
CONTINUOUS
 10
236.712000
 20
64.730400
  0
VERTEX
  8
0
  6
CONTINUOUS
 10
224.364000
 20
64.730400
  0
VERTEX
  8
0
  6
CONTINUOUS
 10
224.364000
 20
64.310400
  0
VERTEX
  8
0
  6
CONTINUOUS
 10
236.712000
 20
64.310400
  0
SEQEND
  8
0
  0
HATCH
  5
 30463
100
AcDbEntity
  8
0
 62
     7
100
AcDbHatch
 10
0.000000
 20
0.000000
 30
0.000000
210
0.000000
220
0.000000
230
0.016800
  2
SOLID
 70
     1
 71
     0
 91
     1
 92
     1
 93
     4
 72
     1
 10
219.660000
 20
48.736800
 11
216.451200
 21
48.736800
 72
     1
 10
216.451200
 20
48.736800
 11
216.451200
 21
48.300000
 72
     1
 10
216.451200
 20
48.300000
 11
219.660000
 21
48.300000
 72
     1
 10
219.660000
 20
48.300000
 11
219.660000
 21
48.736800
 97
     0
 75
     0
 76
     1
 98
     1
 10
0.000000
 20
0.000000
  0
POLYLINE
  8
0
  6
CONTINUOUS
 66
     1
 40
0.000000
 41
0.000000
 70
     1
  0
VERTEX
  8
0
  6
CONTINUOUS
 10
219.660000
 20
48.736800
  0
VERTEX
  8
0
  6
CONTINUOUS
 10
216.451200
 20
48.736800
  0
VERTEX
  8
0
  6
CONTINUOUS
 10
216.451200
 20
48.300000
  0
VERTEX
  8
0
  6
CONTINUOUS
 10
219.660000
 20
48.300000
  0
SEQEND
  8
0
  0
HATCH
  5
 30464
100
AcDbEntity
  8
0
 62
     7
100
AcDbHatch
 10
0.000000
 20
0.000000
 30
0.000000
210
0.000000
220
0.000000
230
0.016800
  2
SOLID
 70
     1
 71
     0
 91
     1
 92
     1
 93
     4
 72
     1
 10
216.652800
 20
46.065600
 11
213.460800
 21
46.065600
 72
     1
 10
213.460800
 20
46.065600
 11
213.460800
 21
45.628800
 72
     1
 10
213.460800
 20
45.628800
 11
216.652800
 21
45.628800
 72
     1
 10
216.652800
 20
45.628800
 11
216.652800
 21
46.065600
 97
     0
 75
     0
 76
     1
 98
     1
 10
0.000000
 20
0.000000
  0
POLYLINE
  8
0
  6
CONTINUOUS
 66
     1
 40
0.000000
 41
0.000000
 70
     1
  0
VERTEX
  8
0
  6
CONTINUOUS
 10
216.652800
 20
46.065600
  0
VERTEX
  8
0
  6
CONTINUOUS
 10
213.460800
 20
46.065600
  0
VERTEX
  8
0
  6
CONTINUOUS
 10
213.460800
 20
45.628800
  0
VERTEX
  8
0
  6
CONTINUOUS
 10
216.652800
 20
45.628800
  0
SEQEND
  8
0
  0
HATCH
  5
 30465
100
AcDbEntity
  8
0
 62
     7
100
AcDbHatch
 10
0.000000
 20
0.000000
 30
0.000000
210
0.000000
220
0.000000
230
0.016800
  2
SOLID
 70
     1
 71
     0
 91
     1
 92
     1
 93
     4
 72
     1
 10
213.645600
 20
43.394400
 11
210.453600
 21
43.394400
 72
     1
 10
210.453600
 20
43.394400
 11
210.453600
 21
42.974400
 72
     1
 10
210.453600
 20
42.974400
 11
213.645600
 21
42.974400
 72
     1
 10
213.645600
 20
42.974400
 11
213.645600
 21
43.394400
 97
     0
 75
     0
 76
     1
 98
     1
 10
0.000000
 20
0.000000
  0
POLYLINE
  8
0
  6
CONTINUOUS
 66
     1
 40
0.000000
 41
0.000000
 70
     1
  0
VERTEX
  8
0
  6
CONTINUOUS
 10
213.645600
 20
43.394400
  0
VERTEX
  8
0
  6
CONTINUOUS
 10
210.453600
 20
43.394400
  0
VERTEX
  8
0
  6
CONTINUOUS
 10
210.453600
 20
42.974400
  0
VERTEX
  8
0
  6
CONTINUOUS
 10
213.645600
 20
42.974400
  0
SEQEND
  8
0
  0
HATCH
  5
 30466
100
AcDbEntity
  8
0
 62
     7
100
AcDbHatch
 10
0.000000
 20
0.000000
 30
0.000000
210
0.000000
220
0.000000
230
0.016800
  2
SOLID
 70
     1
 71
     0
 91
     1
 92
     1
 93
     4
 72
     1
 10
210.655200
 20
40.723200
 11
207.446400
 21
40.723200
 72
     1
 10
207.446400
 20
40.723200
 11
207.446400
 21
40.303200
 72
     1
 10
207.446400
 20
40.303200
 11
210.655200
 21
40.303200
 72
     1
 10
210.655200
 20
40.303200
 11
210.655200
 21
40.723200
 97
     0
 75
     0
 76
     1
 98
     1
 10
0.000000
 20
0.000000
  0
POLYLINE
  8
0
  6
CONTINUOUS
 66
     1
 40
0.000000
 41
0.000000
 70
     1
  0
VERTEX
  8
0
  6
CONTINUOUS
 10
210.655200
 20
40.723200
  0
VERTEX
  8
0
  6
CONTINUOUS
 10
207.446400
 20
40.723200
  0
VERTEX
  8
0
  6
CONTINUOUS
 10
207.446400
 20
40.303200
  0
VERTEX
  8
0
  6
CONTINUOUS
 10
210.655200
 20
40.303200
  0
SEQEND
  8
0
  0
HATCH
  5
 30467
100
AcDbEntity
  8
0
 62
     7
100
AcDbHatch
 10
0.000000
 20
0.000000
 30
0.000000
210
0.000000
220
0.000000
230
0.016800
  2
SOLID
 70
     1
 71
     0
 91
     1
 92
     1
 93
     4
 72
     1
 10
207.648000
 20
38.068800
 11
204.456000
 21
38.068800
 72
     1
 10
204.456000
 20
38.068800
 11
204.456000
 21
37.632000
 72
     1
 10
204.456000
 20
37.632000
 11
207.648000
 21
37.632000
 72
     1
 10
207.648000
 20
37.632000
 11
207.648000
 21
38.068800
 97
     0
 75
     0
 76
     1
 98
     1
 10
0.000000
 20
0.000000
  0
POLYLINE
  8
0
  6
CONTINUOUS
 66
     1
 40
0.000000
 41
0.000000
 70
     1
  0
VERTEX
  8
0
  6
CONTINUOUS
 10
207.648000
 20
38.068800
  0
VERTEX
  8
0
  6
CONTINUOUS
 10
204.456000
 20
38.068800
  0
VERTEX
  8
0
  6
CONTINUOUS
 10
204.456000
 20
37.632000
  0
VERTEX
  8
0
  6
CONTINUOUS
 10
207.648000
 20
37.632000
  0
SEQEND
  8
0
  0
HATCH
  5
 30468
100
AcDbEntity
  8
0
 62
     7
100
AcDbHatch
 10
0.000000
 20
0.000000
 30
0.000000
210
0.000000
220
0.000000
230
0.016800
  2
SOLID
 70
     1
 71
     0
 91
     1
 92
     1
 93
     4
 72
     1
 10
204.657600
 20
35.397600
 11
201.448800
 21
35.397600
 72
     1
 10
201.448800
 20
35.397600
 11
201.448800
 21
34.960800
 72
     1
 10
201.448800
 20
34.960800
 11
204.657600
 21
34.960800
 72
     1
 10
204.657600
 20
34.960800
 11
204.657600
 21
35.397600
 97
     0
 75
     0
 76
     1
 98
     1
 10
0.000000
 20
0.000000
  0
POLYLINE
  8
0
  6
CONTINUOUS
 66
     1
 40
0.000000
 41
0.000000
 70
     1
  0
VERTEX
  8
0
  6
CONTINUOUS
 10
204.657600
 20
35.397600
  0
VERTEX
  8
0
  6
CONTINUOUS
 10
201.448800
 20
35.397600
  0
VERTEX
  8
0
  6
CONTINUOUS
 10
201.448800
 20
34.960800
  0
VERTEX
  8
0
  6
CONTINUOUS
 10
204.657600
 20
34.960800
  0
SEQEND
  8
0
  0
HATCH
  5
 30469
100
AcDbEntity
  8
0
 62
     7
100
AcDbHatch
 10
0.000000
 20
0.000000
 30
0.000000
210
0.000000
220
0.000000
230
0.016800
  2
SOLID
 70
     1
 71
     0
 91
     1
 92
     1
 93
     4
 72
     1
 10
201.650400
 20
32.726400
 11
198.458400
 21
32.726400
 72
     1
 10
198.458400
 20
32.726400
 11
198.458400
 21
32.306400
 72
     1
 10
198.458400
 20
32.306400
 11
201.650400
 21
32.306400
 72
     1
 10
201.650400
 20
32.306400
 11
201.650400
 21
32.726400
 97
     0
 75
     0
 76
     1
 98
     1
 10
0.000000
 20
0.000000
  0
POLYLINE
  8
0
  6
CONTINUOUS
 66
     1
 40
0.000000
 41
0.000000
 70
     1
  0
VERTEX
  8
0
  6
CONTINUOUS
 10
201.650400
 20
32.726400
  0
VERTEX
  8
0
  6
CONTINUOUS
 10
198.458400
 20
32.726400
  0
VERTEX
  8
0
  6
CONTINUOUS
 10
198.458400
 20
32.306400
  0
VERTEX
  8
0
  6
CONTINUOUS
 10
201.650400
 20
32.306400
  0
SEQEND
  8
0
  0
HATCH
  5
 30470
100
AcDbEntity
  8
0
 62
     7
100
AcDbHatch
 10
0.000000
 20
0.000000
 30
0.000000
210
0.000000
220
0.000000
230
0.016800
  2
SOLID
 70
     1
 71
     0
 91
     1
 92
     1
 93
     4
 72
     1
 10
198.660000
 20
30.055200
 11
195.451200
 21
30.055200
 72
     1
 10
195.451200
 20
30.055200
 11
195.451200
 21
29.635200
 72
     1
 10
195.451200
 20
29.635200
 11
198.660000
 21
29.635200
 72
     1
 10
198.660000
 20
29.635200
 11
198.660000
 21
30.055200
 97
     0
 75
     0
 76
     1
 98
     1
 10
0.000000
 20
0.000000
  0
POLYLINE
  8
0
  6
CONTINUOUS
 66
     1
 40
0.000000
 41
0.000000
 70
     1
  0
VERTEX
  8
0
  6
CONTINUOUS
 10
198.660000
 20
30.055200
  0
VERTEX
  8
0
  6
CONTINUOUS
 10
195.451200
 20
30.055200
  0
VERTEX
  8
0
  6
CONTINUOUS
 10
195.451200
 20
29.635200
  0
VERTEX
  8
0
  6
CONTINUOUS
 10
198.660000
 20
29.635200
  0
SEQEND
  8
0
  0
HATCH
  5
 30471
100
AcDbEntity
  8
0
 62
     7
100
AcDbHatch
 10
0.000000
 20
0.000000
 30
0.000000
210
0.000000
220
0.000000
230
0.016800
  2
SOLID
 70
     1
 71
     0
 91
     1
 92
     1
 93
     4
 72
     1
 10
195.652800
 20
27.400800
 11
192.460800
 21
27.400800
 72
     1
 10
192.460800
 20
27.400800
 11
192.460800
 21
26.964000
 72
     1
 10
192.460800
 20
26.964000
 11
195.652800
 21
26.964000
 72
     1
 10
195.652800
 20
26.964000
 11
195.652800
 21
27.400800
 97
     0
 75
     0
 76
     1
 98
     1
 10
0.000000
 20
0.000000
  0
POLYLINE
  8
0
  6
CONTINUOUS
 66
     1
 40
0.000000
 41
0.000000
 70
     1
  0
VERTEX
  8
0
  6
CONTINUOUS
 10
195.652800
 20
27.400800
  0
VERTEX
  8
0
  6
CONTINUOUS
 10
192.460800
 20
27.400800
  0
VERTEX
  8
0
  6
CONTINUOUS
 10
192.460800
 20
26.964000
  0
VERTEX
  8
0
  6
CONTINUOUS
 10
195.652800
 20
26.964000
  0
SEQEND
  8
0
  0
HATCH
  5
 30472
100
AcDbEntity
  8
0
 62
     7
100
AcDbHatch
 10
0.000000
 20
0.000000
 30
0.000000
210
0.000000
220
0.000000
230
0.016800
  2
SOLID
 70
     1
 71
     0
 91
     1
 92
     1
 93
     4
 72
     1
 10
192.645600
 20
24.729600
 11
189.453600
 21
24.729600
 72
     1
 10
189.453600
 20
24.729600
 11
189.453600
 21
24.292800
 72
     1
 10
189.453600
 20
24.292800
 11
192.645600
 21
24.292800
 72
     1
 10
192.645600
 20
24.292800
 11
192.645600
 21
24.729600
 97
     0
 75
     0
 76
     1
 98
     1
 10
0.000000
 20
0.000000
  0
POLYLINE
  8
0
  6
CONTINUOUS
 66
     1
 40
0.000000
 41
0.000000
 70
     1
  0
VERTEX
  8
0
  6
CONTINUOUS
 10
192.645600
 20
24.729600
  0
VERTEX
  8
0
  6
CONTINUOUS
 10
189.453600
 20
24.729600
  0
VERTEX
  8
0
  6
CONTINUOUS
 10
189.453600
 20
24.292800
  0
VERTEX
  8
0
  6
CONTINUOUS
 10
192.645600
 20
24.292800
  0
SEQEND
  8
0
  0
HATCH
  5
 30473
100
AcDbEntity
  8
0
 62
     7
100
AcDbHatch
 10
0.000000
 20
0.000000
 30
0.000000
210
0.000000
220
0.000000
230
0.016800
  2
SOLID
 70
     1
 71
     0
 91
     1
 92
     1
 93
     4
 72
     1
 10
189.655200
 20
22.058400
 11
186.446400
 21
22.058400
 72
     1
 10
186.446400
 20
22.058400
 11
186.446400
 21
21.638400
 72
     1
 10
186.446400
 20
21.638400
 11
189.655200
 21
21.638400
 72
     1
 10
189.655200
 20
21.638400
 11
189.655200
 21
22.058400
 97
     0
 75
     0
 76
     1
 98
     1
 10
0.000000
 20
0.000000
  0
POLYLINE
  8
0
  6
CONTINUOUS
 66
     1
 40
0.000000
 41
0.000000
 70
     1
  0
VERTEX
  8
0
  6
CONTINUOUS
 10
189.655200
 20
22.058400
  0
VERTEX
  8
0
  6
CONTINUOUS
 10
186.446400
 20
22.058400
  0
VERTEX
  8
0
  6
CONTINUOUS
 10
186.446400
 20
21.638400
  0
VERTEX
  8
0
  6
CONTINUOUS
 10
189.655200
 20
21.638400
  0
SEQEND
  8
0
  0
POLYLINE
  8
0
  6
CONTINUOUS
 66
     1
 40
0.000000
 41
0.000000
  0
VERTEX
  8
0
  6
CONTINUOUS
 10
223.288800
 20
51.609600
  0
VERTEX
  8
0
  6
CONTINUOUS
 10
190.041600
 20
21.638400
  0
VERTEX
  8
0
  6
CONTINUOUS
 10
233.150400
 20
21.638400
  0
SEQEND
  8
0
  0
MTEXT
  5
 30474
100
AcDbEntity
100
AcDbMText
 71
     1
 72
     5
  8
0
 10
193.401600
 20
22.545600
 40
1.954511
  1
\fCentury Schoolbook SWA|b0|i0|c0|p18;42°
 41
0.000000
  0
MTEXT
  5
 30475
100
AcDbEntity
100
AcDbMText
 71
     1
 72
     5
  8
0
 10
262.500000
 20
142.548000
 40
2.875114
  1
\fArial|b0|i0|c0|p18;New Bedroom 1
 41
0.000000
  0
MTEXT
  5
 30476
100
AcDbEntity
100
AcDbMText
 71
     1
 72
     5
  8
0
 10
34.742400
 20
211.327200
 40
7.265683
  1
\fArial|b0|i0|c0|p18;Proposed new layaout
 41
0.000000
  0
MTEXT
  5
 30477
100
AcDbEntity
100
AcDbMText
 71
     1
 72
     5
  8
0
 10
262.500000
 20
96.028800
 40
2.875114
  1
\fArial|b0|i0|c0|p18;New Bedroom 2
 41
0.000000
  0
MTEXT
  5
 30478
100
AcDbEntity
100
AcDbMText
 71
     1
 72
     5
  8
0
 10
319.032000
 20
145.756800
 40
2.875114
  1
\fArial|b0|i0|c0|p18;Landing
 41
0.000000
  0
MTEXT
  5
 30479
100
AcDbEntity
100
AcDbMText
 71
     1
 72
     5
  8
0
 10
311.505600
 20
104.260800
 40
2.875114
  1
\fArial|b0|i0|c0|p18;Cupboard
 41
0.000000
  0
MTEXT
  5
 30480
100
AcDbEntity
100
AcDbMText
 71
     1
 72
     5
  8
0
 10
215.527200
 20
27.165600
 40
2.875114
  1
\fArial|b0|i0|c0|p18;Elevation of stairs
 41
0.000000
  0
POLYLINE
  8
0
 62
   176
  6
HIDDEN
 66
     1
 40
0.100800
 41
0.100800
 70
     1
  0
VERTEX
  8
0
 62
   176
  6
HIDDEN
 10
62.647200
 20
164.942400
  0
VERTEX
  8
0
 62
   176
  6
HIDDEN
 10
62.647200
 20
58.867200
  0
VERTEX
  8
0
 62
   176
  6
HIDDEN
 10
88.804800
 20
58.867200
  0
VERTEX
  8
0
 62
   176
  6
HIDDEN
 10
88.804800
 20
82.605600
  0
VERTEX
  8
0
 62
   176
  6
HIDDEN
 10
105.016800
 20
82.605600
  0
VERTEX
  8
0
 62
   176
  6
HIDDEN
 10
105.016800
 20
100.548000
  0
VERTEX
  8
0
 62
   176
  6
HIDDEN
 10
139.725600
 20
100.548000
  0
VERTEX
  8
0
 62
   176
  6
HIDDEN
 10
139.725600
 20
118.070400
  0
VERTEX
  8
0
 62
   176
  6
HIDDEN
 10
147.268800
 20
118.070400
  0
VERTEX
  8
0
 62
   176
  6
HIDDEN
 10
147.268800
 20
129.948000
  0
VERTEX
  8
0
 62
   176
  6
HIDDEN
 10
144.060000
 20
129.948000
  0
VERTEX
  8
0
 62
   176
  6
HIDDEN
 10
144.060000
 20
164.942400
  0
SEQEND
  8
0
  0
POLYLINE
  8
0
 62
   176
  6
CONTINUOUS
 66
     1
 40
0.100800
 41
0.100800
 70
     1
  0
VERTEX
  8
0
 62
   176
  6
CONTINUOUS
 10
62.647200
 20
164.959200
  0
VERTEX
  8
0
 62
   176
  6
CONTINUOUS
 10
62.647200
 20
58.867200
  0
VERTEX
  8
0
 62
   176
  6
CONTINUOUS
 10
88.804800
 20
58.867200
  0
VERTEX
  8
0
 62
   176
  6
CONTINUOUS
 10
88.804800
 20
82.605600
  0
VERTEX
  8
0
 62
   176
  6
CONTINUOUS
 10
105.016800
 20
82.605600
  0
VERTEX
  8
0
 62
   176
  6
CONTINUOUS
 10
105.016800
 20
100.548000
  0
VERTEX
  8
0
 62
   176
  6
CONTINUOUS
 10
139.725600
 20
100.548000
  0
VERTEX
  8
0
 62
   176
  6
CONTINUOUS
 10
139.725600
 20
118.070400
  0
VERTEX
  8
0
 62
   176
  6
CONTINUOUS
 10
147.268800
 20
118.070400
  0
VERTEX
  8
0
 62
   176
  6
CONTINUOUS
 10
147.268800
 20
129.948000
  0
VERTEX
  8
0
 62
   176
  6
CONTINUOUS
 10
144.060000
 20
129.948000
  0
VERTEX
  8
0
 62
   176
  6
CONTINUOUS
 10
144.060000
 20
164.959200
  0
VERTEX
  8
0
 62
   176
  6
CONTINUOUS
 10
135.492000
 20
164.959200
  0
VERTEX
  8
0
 62
   176
  6
CONTINUOUS
 10
135.492000
 20
168.050400
  0
VERTEX
  8
0
 62
   176
  6
CONTINUOUS
 10
107.301600
 20
168.050400
  0
VERTEX
  8
0
 62
   176
  6
CONTINUOUS
 10
107.301600
 20
164.959200
  0
SEQEND
  8
0
  0
ENDSEC
  0
EOF
