  0
SECTION
  2
HEADER
  9
$ACADVER
  1
AC1006
  9
$EXTMIN
 10
36.892800
 20
26.073600
  9
$EXTMAX
 10
179.256000
 20
139.070400
  9
$LTSCALE
 40
1.680000
  9
$PDMODE
 70
    35
  9
$PDSIZE
 40
1.344000
  0
ENDSEC
  0
SECTION
  2
TABLES
  0
TABLE
  2
LTYPE
 70
     9
  0
LTYPE
  2
CONTINUOUS
 70
    64
  3
Solid line
 72
    65
 73
     0
 40
0.000000
  0
LTYPE
  2
DASHED
 70
    64
  3
__ __ __ __ __ __ __ __ __ __ __ __ __ __ __
 72
    65
 73
     2
 40
0.012600
 49
0.008400
 49
-0.004200
  0
LTYPE
  2
HIDDEN
 70
    64
  3
 _ _ _ _ _ _ _ _ _ _ _ _ _ _ _ _ _ _ _ _ _ _
 72
    65
 73
     2
 40
0.006300
 49
0.004200
 49
-0.002100
  0
LTYPE
  2
CENTER
 70
    64
  3
____ _ ____ _ ____ _ ____ _ ____ _ ____ _ ____
 72
    65
 73
     4
 40
0.033600
 49
0.021000
 49
-0.004200
 49
0.004200
 49
-0.004200
  0
LTYPE
  2
PHANTOM
 70
    64
  3
_____ _ _ _____ _ _ _____ _ _ _____ _ _ ____
 72
    65
 73
     6
 40
0.042000
 49
0.021000
 49
-0.004200
 49
0.004200
 49
-0.004200
 49
0.004200
 49
-0.004200
  0
LTYPE
  2
DOT
 70
    64
  3
...............................................
 72
    65
 73
     2
 40
0.004200
 49
0.000000
 49
-0.004200
  0
LTYPE
  2
DASHDOT
 70
    64
  3
__ . __ . __ . __ . __ . __ . __ . __ . __ . __
 72
    65
 73
     4
 40
0.016800
 49
0.008400
 49
-0.004200
 49
0.000000
 49
-0.004200
  0
LTYPE
  2
BORDER
 70
    64
  3
__ __ . __ __ . __ __ . __ __ . __ __ . __ __
 72
    65
 73
     6
 40
0.029400
 49
0.008400
 49
-0.004200
 49
0.008400
 49
-0.004200
 49
0.000000
 49
-0.004200
  0
LTYPE
  2
DIVIDE
 70
    64
  3
__ . . __ . . __ . . __ . . __ . . __ . . __
 72
    65
 73
     6
 40
0.021000
 49
0.008400
 49
-0.004200
 49
0.000000
 49
-0.004200
 49
0.000000
 49
-0.004200
  0
LTYPE
  2
DOTDOT
 70
    64
  3
 . .  . .  . .  . .  . .  . . 
 72
    65
 73
     5
 40
0.009240
 49
-0.004200
 49
0.000000
 49
-0.004200
 49
0.000000
 49
-0.004200
  0
ENDTAB
  0
TABLE
  2
STYLE
 70
     0
  0
ENDTAB
  0
TABLE
  2
LAYER
 70
     3
  0
LAYER
  2
FOREGROUND
 70
    64
 62
     7
  6
CONTINUOUS
  0
LAYER
  2
BACKGROUND
 70
    65
 62
    -7
  6
CONTINUOUS
  0
LAYER
  2
0
 70
    64
 62
     7
  6
CONTINUOUS
  0
ENDTAB
  0
ENDSEC
  0
SECTION
  2
ENTITIES
  0
HATCH
  5
   999
100
AcDbEntity
  8
0
 62
     7
100
AcDbHatch
 10
0.000000
 20
0.000000
 30
0.000000
210
0.000000
220
0.000000
230
0.016800
  2
SOLID
 70
     1
 71
     0
 91
     1
 92
     1
 93
     4
 72
     1
 10
107.284800
 20
137.844000
 11
124.706400
 21
137.844000
 72
     1
 10
124.706400
 20
137.844000
 11
124.706400
 21
135.156000
 72
     1
 10
124.706400
 20
135.156000
 11
107.284800
 21
135.156000
 72
     1
 10
107.284800
 20
135.156000
 11
107.284800
 21
137.844000
 97
     0
 75
     0
 76
     1
 98
     1
 10
0.000000
 20
0.000000
  0
POLYLINE
  8
0
  6
CONTINUOUS
 66
     1
 40
0.000000
 41
0.000000
 70
     1
  0
VERTEX
  8
0
  6
CONTINUOUS
 10
107.284800
 20
137.844000
  0
VERTEX
  8
0
  6
CONTINUOUS
 10
124.706400
 20
137.844000
  0
VERTEX
  8
0
  6
CONTINUOUS
 10
124.706400
 20
135.156000
  0
VERTEX
  8
0
  6
CONTINUOUS
 10
107.284800
 20
135.156000
  0
SEQEND
  8
0
  0
HATCH
  5
  1000
100
AcDbEntity
  8
0
 62
     7
100
AcDbHatch
 10
0.000000
 20
0.000000
 30
0.000000
210
0.000000
220
0.000000
230
0.016800
  2
SOLID
 70
     1
 71
     0
 91
     1
 92
     1
 93
     4
 72
     1
 10
124.706400
 20
135.156000
 11
152.846400
 21
135.156000
 72
     1
 10
152.846400
 20
135.156000
 11
152.846400
 21
132.081600
 72
     1
 10
152.846400
 20
132.081600
 11
124.706400
 21
132.081600
 72
     1
 10
124.706400
 20
132.081600
 11
124.706400
 21
135.156000
 97
     0
 75
     0
 76
     1
 98
     1
 10
0.000000
 20
0.000000
  0
POLYLINE
  8
0
  6
CONTINUOUS
 66
     1
 40
0.000000
 41
0.000000
 70
     1
  0
VERTEX
  8
0
  6
CONTINUOUS
 10
124.706400
 20
135.156000
  0
VERTEX
  8
0
  6
CONTINUOUS
 10
152.846400
 20
135.156000
  0
VERTEX
  8
0
  6
CONTINUOUS
 10
152.846400
 20
132.081600
  0
VERTEX
  8
0
  6
CONTINUOUS
 10
124.706400
 20
132.081600
  0
SEQEND
  8
0
  0
HATCH
  5
  1001
100
AcDbEntity
  8
0
 62
    16
100
AcDbHatch
 10
0.000000
 20
0.000000
 30
0.000000
210
0.000000
220
0.000000
230
0.016800
  2
SOLID
 70
     1
 71
     0
 91
     1
 92
     1
 93
     4
 72
     1
 10
161.162400
 20
97.238400
 11
164.371200
 21
97.238400
 72
     1
 10
164.371200
 20
97.238400
 11
164.371200
 21
86.251200
 72
     1
 10
164.371200
 20
86.251200
 11
161.162400
 21
86.251200
 72
     1
 10
161.162400
 20
86.251200
 11
161.162400
 21
97.238400
 97
     0
 75
     0
 76
     1
 98
     1
 10
0.000000
 20
0.000000
  0
POLYLINE
  8
0
  6
CONTINUOUS
 66
     1
 40
0.000000
 41
0.000000
 70
     1
  0
VERTEX
  8
0
  6
CONTINUOUS
 10
161.162400
 20
97.238400
  0
VERTEX
  8
0
  6
CONTINUOUS
 10
164.371200
 20
97.238400
  0
VERTEX
  8
0
  6
CONTINUOUS
 10
164.371200
 20
86.251200
  0
VERTEX
  8
0
  6
CONTINUOUS
 10
161.162400
 20
86.251200
  0
SEQEND
  8
0
  0
HATCH
  5
  1002
100
AcDbEntity
  8
0
 62
    16
100
AcDbHatch
 10
0.000000
 20
0.000000
 30
0.000000
210
0.000000
220
0.000000
230
0.016800
  2
SOLID
 70
     1
 71
     0
 91
     1
 92
     1
 93
     4
 72
     1
 10
162.086400
 20
137.844000
 11
165.312000
 21
137.844000
 72
     1
 10
165.312000
 20
137.844000
 11
165.312000
 21
126.856800
 72
     1
 10
165.312000
 20
126.856800
 11
162.086400
 21
126.856800
 72
     1
 10
162.086400
 20
126.856800
 11
162.086400
 21
137.844000
 97
     0
 75
     0
 76
     1
 98
     1
 10
0.000000
 20
0.000000
  0
POLYLINE
  8
0
  6
CONTINUOUS
 66
     1
 40
0.000000
 41
0.000000
 70
     1
  0
VERTEX
  8
0
  6
CONTINUOUS
 10
162.086400
 20
137.844000
  0
VERTEX
  8
0
  6
CONTINUOUS
 10
165.312000
 20
137.844000
  0
VERTEX
  8
0
  6
CONTINUOUS
 10
165.312000
 20
126.856800
  0
VERTEX
  8
0
  6
CONTINUOUS
 10
162.086400
 20
126.856800
  0
SEQEND
  8
0
  0
HATCH
  5
  1003
100
AcDbEntity
  8
0
 62
    16
100
AcDbHatch
 10
0.000000
 20
0.000000
 30
0.000000
210
0.000000
220
0.000000
230
0.016800
  2
SOLID
 70
     1
 71
     0
 91
     1
 92
     1
 93
     4
 72
     1
 10
60.396000
 20
133.677600
 11
63.336000
 21
133.677600
 72
     1
 10
63.336000
 20
133.677600
 11
63.336000
 21
95.760000
 72
     1
 10
63.336000
 20
95.760000
 11
60.396000
 21
95.760000
 72
     1
 10
60.396000
 20
95.760000
 11
60.396000
 21
133.677600
 97
     0
 75
     0
 76
     1
 98
     1
 10
0.000000
 20
0.000000
  0
POLYLINE
  8
0
  6
CONTINUOUS
 66
     1
 40
0.000000
 41
0.000000
 70
     1
  0
VERTEX
  8
0
  6
CONTINUOUS
 10
60.396000
 20
133.677600
  0
VERTEX
  8
0
  6
CONTINUOUS
 10
63.336000
 20
133.677600
  0
VERTEX
  8
0
  6
CONTINUOUS
 10
63.336000
 20
95.760000
  0
VERTEX
  8
0
  6
CONTINUOUS
 10
60.396000
 20
95.760000
  0
SEQEND
  8
0
  0
HATCH
  5
  1004
100
AcDbEntity
  8
0
 62
    16
100
AcDbHatch
 10
0.000000
 20
0.000000
 30
0.000000
210
0.000000
220
0.000000
230
0.016800
  2
SOLID
 70
     1
 71
     0
 91
     1
 92
     1
 93
     4
 72
     1
 10
36.943200
 20
130.737600
 11
105.940800
 21
130.737600
 72
     1
 10
105.940800
 20
130.737600
 11
105.940800
 21
128.587200
 72
     1
 10
105.940800
 20
128.587200
 11
36.943200
 21
128.587200
 72
     1
 10
36.943200
 20
128.587200
 11
36.943200
 21
130.737600
 97
     0
 75
     0
 76
     1
 98
     1
 10
0.000000
 20
0.000000
  0
POLYLINE
  8
0
  6
CONTINUOUS
 66
     1
 40
0.000000
 41
0.000000
 70
     1
  0
VERTEX
  8
0
  6
CONTINUOUS
 10
36.943200
 20
130.737600
  0
VERTEX
  8
0
  6
CONTINUOUS
 10
105.940800
 20
130.737600
  0
VERTEX
  8
0
  6
CONTINUOUS
 10
105.940800
 20
128.587200
  0
VERTEX
  8
0
  6
CONTINUOUS
 10
36.943200
 20
128.587200
  0
SEQEND
  8
0
  0
HATCH
  5
  1005
100
AcDbEntity
  8
0
 62
    16
100
AcDbHatch
 10
0.000000
 20
0.000000
 30
0.000000
210
0.000000
220
0.000000
230
0.016800
  2
SOLID
 70
     1
 71
     0
 91
     1
 92
     1
 93
     4
 72
     1
 10
92.954400
 20
137.709600
 11
94.416000
 21
137.709600
 72
     1
 10
94.416000
 20
137.709600
 11
94.416000
 21
112.644000
 72
     1
 10
94.416000
 20
112.644000
 11
92.954400
 21
112.644000
 72
     1
 10
92.954400
 20
112.644000
 11
92.954400
 21
137.709600
 97
     0
 75
     0
 76
     1
 98
     1
 10
0.000000
 20
0.000000
  0
POLYLINE
  8
0
  6
CONTINUOUS
 66
     1
 40
0.000000
 41
0.000000
 70
     1
  0
VERTEX
  8
0
  6
CONTINUOUS
 10
92.954400
 20
137.709600
  0
VERTEX
  8
0
  6
CONTINUOUS
 10
94.416000
 20
137.709600
  0
VERTEX
  8
0
  6
CONTINUOUS
 10
94.416000
 20
112.644000
  0
VERTEX
  8
0
  6
CONTINUOUS
 10
92.954400
 20
112.644000
  0
SEQEND
  8
0
  0
HATCH
  5
  1006
100
AcDbEntity
  8
0
 62
    16
100
AcDbHatch
 10
0.000000
 20
0.000000
 30
0.000000
210
0.000000
220
0.000000
230
0.016800
  2
SOLID
 70
     1
 71
     0
 91
     1
 92
     1
 93
     4
 72
     1
 10
86.385600
 20
112.644000
 11
88.401600
 21
112.644000
 72
     1
 10
88.401600
 20
112.644000
 11
88.401600
 21
84.772800
 72
     1
 10
88.401600
 20
84.772800
 11
86.385600
 21
84.772800
 72
     1
 10
86.385600
 20
84.772800
 11
86.385600
 21
112.644000
 97
     0
 75
     0
 76
     1
 98
     1
 10
0.000000
 20
0.000000
  0
POLYLINE
  8
0
  6
CONTINUOUS
 66
     1
 40
0.000000
 41
0.000000
 70
     1
  0
VERTEX
  8
0
  6
CONTINUOUS
 10
86.385600
 20
112.644000
  0
VERTEX
  8
0
  6
CONTINUOUS
 10
88.401600
 20
112.644000
  0
VERTEX
  8
0
  6
CONTINUOUS
 10
88.401600
 20
84.772800
  0
VERTEX
  8
0
  6
CONTINUOUS
 10
86.385600
 20
84.772800
  0
SEQEND
  8
0
  0
HATCH
  5
  1007
100
AcDbEntity
  8
0
 62
    16
100
AcDbHatch
 10
0.000000
 20
0.000000
 30
0.000000
210
0.000000
220
0.000000
230
0.016800
  2
SOLID
 70
     1
 71
     0
 91
     1
 92
     1
 93
     4
 72
     1
 10
107.284800
 20
90.300000
 11
164.236800
 21
90.300000
 72
     1
 10
164.236800
 20
90.300000
 11
164.236800
 21
86.940000
 72
     1
 10
164.236800
 20
86.940000
 11
107.284800
 21
86.940000
 72
     1
 10
107.284800
 20
86.940000
 11
107.284800
 21
90.300000
 97
     0
 75
     0
 76
     1
 98
     1
 10
0.000000
 20
0.000000
  0
POLYLINE
  8
0
  6
CONTINUOUS
 66
     1
 40
0.000000
 41
0.000000
 70
     1
  0
VERTEX
  8
0
  6
CONTINUOUS
 10
107.284800
 20
90.300000
  0
VERTEX
  8
0
  6
CONTINUOUS
 10
164.236800
 20
90.300000
  0
VERTEX
  8
0
  6
CONTINUOUS
 10
164.236800
 20
86.940000
  0
VERTEX
  8
0
  6
CONTINUOUS
 10
107.284800
 20
86.940000
  0
SEQEND
  8
0
  0
HATCH
  5
  1008
100
AcDbEntity
  8
0
 62
    16
100
AcDbHatch
 10
0.000000
 20
0.000000
 30
0.000000
210
0.000000
220
0.000000
230
0.016800
  2
SOLID
 70
     1
 71
     0
 91
     1
 92
     1
 93
     4
 72
     1
 10
114.710400
 20
137.776800
 11
117.264000
 21
137.776800
 72
     1
 10
117.264000
 20
137.776800
 11
117.264000
 21
86.318400
 72
     1
 10
117.264000
 20
86.318400
 11
114.710400
 21
86.318400
 72
     1
 10
114.710400
 20
86.318400
 11
114.710400
 21
137.776800
 97
     0
 75
     0
 76
     1
 98
     1
 10
0.000000
 20
0.000000
  0
POLYLINE
  8
0
  6
CONTINUOUS
 66
     1
 40
0.000000
 41
0.000000
 70
     1
  0
VERTEX
  8
0
  6
CONTINUOUS
 10
114.710400
 20
137.776800
  0
VERTEX
  8
0
  6
CONTINUOUS
 10
117.264000
 20
137.776800
  0
VERTEX
  8
0
  6
CONTINUOUS
 10
117.264000
 20
86.318400
  0
VERTEX
  8
0
  6
CONTINUOUS
 10
114.710400
 20
86.318400
  0
SEQEND
  8
0
  0
HATCH
  5
  1009
100
AcDbEntity
  8
0
 62
    16
100
AcDbHatch
 10
0.000000
 20
0.000000
 30
0.000000
210
0.000000
220
0.000000
230
0.016800
  2
SOLID
 70
     1
 71
     0
 91
     1
 92
     1
 93
     4
 72
     1
 10
107.419200
 20
132.115200
 11
165.715200
 21
132.115200
 72
     1
 10
165.715200
 20
132.115200
 11
165.715200
 21
128.738400
 72
     1
 10
165.715200
 20
128.738400
 11
107.419200
 21
128.738400
 72
     1
 10
107.419200
 20
128.738400
 11
107.419200
 21
132.115200
 97
     0
 75
     0
 76
     1
 98
     1
 10
0.000000
 20
0.000000
  0
POLYLINE
  8
0
  6
CONTINUOUS
 66
     1
 40
0.000000
 41
0.000000
 70
     1
  0
VERTEX
  8
0
  6
CONTINUOUS
 10
107.419200
 20
132.115200
  0
VERTEX
  8
0
  6
CONTINUOUS
 10
165.715200
 20
132.115200
  0
VERTEX
  8
0
  6
CONTINUOUS
 10
165.715200
 20
128.738400
  0
VERTEX
  8
0
  6
CONTINUOUS
 10
107.419200
 20
128.738400
  0
SEQEND
  8
0
  0
HATCH
  5
  1010
100
AcDbEntity
  8
0
 62
    16
100
AcDbHatch
 10
0.000000
 20
0.000000
 30
0.000000
210
0.000000
220
0.000000
230
0.016800
  2
SOLID
 70
     1
 71
     0
 91
     1
 92
     1
 93
     4
 72
     1
 10
124.437600
 20
84.907200
 11
127.663200
 21
84.907200
 72
     1
 10
127.663200
 20
84.907200
 11
127.663200
 21
68.426400
 72
     1
 10
127.663200
 20
68.426400
 11
124.437600
 21
68.426400
 72
     1
 10
124.437600
 20
68.426400
 11
124.437600
 21
84.907200
 97
     0
 75
     0
 76
     1
 98
     1
 10
0.000000
 20
0.000000
  0
POLYLINE
  8
0
  6
CONTINUOUS
 66
     1
 40
0.000000
 41
0.000000
 70
     1
  0
VERTEX
  8
0
  6
CONTINUOUS
 10
124.437600
 20
84.907200
  0
VERTEX
  8
0
  6
CONTINUOUS
 10
127.663200
 20
84.907200
  0
VERTEX
  8
0
  6
CONTINUOUS
 10
127.663200
 20
68.426400
  0
VERTEX
  8
0
  6
CONTINUOUS
 10
124.437600
 20
68.426400
  0
SEQEND
  8
0
  0
HATCH
  5
  1011
100
AcDbEntity
  8
0
 62
    16
100
AcDbHatch
 10
0.000000
 20
0.000000
 30
0.000000
210
0.000000
220
0.000000
230
0.016800
  2
SOLID
 70
     1
 71
     0
 91
     1
 92
     1
 93
     4
 72
     1
 10
165.580800
 20
114.256800
 11
179.239200
 21
114.256800
 72
     1
 10
179.239200
 20
114.256800
 11
179.239200
 21
110.376000
 72
     1
 10
179.239200
 20
110.376000
 11
165.580800
 21
110.376000
 72
     1
 10
165.580800
 20
110.376000
 11
165.580800
 21
114.256800
 97
     0
 75
     0
 76
     1
 98
     1
 10
0.000000
 20
0.000000
  0
POLYLINE
  8
0
  6
CONTINUOUS
 66
     1
 40
0.000000
 41
0.000000
 70
     1
  0
VERTEX
  8
0
  6
CONTINUOUS
 10
165.580800
 20
114.256800
  0
VERTEX
  8
0
  6
CONTINUOUS
 10
179.239200
 20
114.256800
  0
VERTEX
  8
0
  6
CONTINUOUS
 10
179.239200
 20
110.376000
  0
VERTEX
  8
0
  6
CONTINUOUS
 10
165.580800
 20
110.376000
  0
SEQEND
  8
0
  0
HATCH
  5
  1012
100
AcDbEntity
  8
0
 62
    16
100
AcDbHatch
 10
0.000000
 20
0.000000
 30
0.000000
210
0.000000
220
0.000000
230
0.016800
  2
SOLID
 70
     1
 71
     0
 91
     1
 92
     1
 93
     4
 72
     1
 10
105.672000
 20
74.860800
 11
164.640000
 21
74.860800
 72
     1
 10
164.640000
 20
74.860800
 11
164.640000
 21
72.576000
 72
     1
 10
164.640000
 20
72.576000
 11
105.672000
 21
72.576000
 72
     1
 10
105.672000
 20
72.576000
 11
105.672000
 21
74.860800
 97
     0
 75
     0
 76
     1
 98
     1
 10
0.000000
 20
0.000000
  0
POLYLINE
  8
0
  6
CONTINUOUS
 66
     1
 40
0.000000
 41
0.000000
 70
     1
  0
VERTEX
  8
0
  6
CONTINUOUS
 10
105.672000
 20
74.860800
  0
VERTEX
  8
0
  6
CONTINUOUS
 10
164.640000
 20
74.860800
  0
VERTEX
  8
0
  6
CONTINUOUS
 10
164.640000
 20
72.576000
  0
VERTEX
  8
0
  6
CONTINUOUS
 10
105.672000
 20
72.576000
  0
SEQEND
  8
0
  0
HATCH
  5
  1013
100
AcDbEntity
  8
0
 62
    16
100
AcDbHatch
 10
0.000000
 20
0.000000
 30
0.000000
210
0.000000
220
0.000000
230
0.016800
  2
SOLID
 70
     1
 71
     0
 91
     1
 92
     1
 93
     4
 72
     1
 10
90.535200
 20
52.214400
 11
105.672000
 21
52.214400
 72
     1
 10
105.672000
 20
52.214400
 11
105.672000
 21
47.527200
 72
     1
 10
105.672000
 20
47.527200
 11
90.535200
 21
47.527200
 72
     1
 10
90.535200
 20
47.527200
 11
90.535200
 21
52.214400
 97
     0
 75
     0
 76
     1
 98
     1
 10
0.000000
 20
0.000000
  0
POLYLINE
  8
0
  6
CONTINUOUS
 66
     1
 40
0.000000
 41
0.000000
 70
     1
  0
VERTEX
  8
0
  6
CONTINUOUS
 10
90.535200
 20
52.214400
  0
VERTEX
  8
0
  6
CONTINUOUS
 10
105.672000
 20
52.214400
  0
VERTEX
  8
0
  6
CONTINUOUS
 10
105.672000
 20
47.527200
  0
VERTEX
  8
0
  6
CONTINUOUS
 10
90.535200
 20
47.527200
  0
SEQEND
  8
0
  0
HATCH
  5
  1014
100
AcDbEntity
  8
0
 62
     7
100
AcDbHatch
 10
0.000000
 20
0.000000
 30
0.000000
210
0.000000
220
0.000000
230
0.016800
  2
SOLID
 70
     1
 71
     0
 91
     1
 92
     1
 93
     4
 72
     1
 10
52.348800
 20
95.760000
 11
60.261600
 21
95.760000
 72
     1
 10
60.261600
 20
95.760000
 11
60.261600
 21
94.416000
 72
     1
 10
60.261600
 20
94.416000
 11
52.348800
 21
94.416000
 72
     1
 10
52.348800
 20
94.416000
 11
52.348800
 21
95.760000
 97
     0
 75
     0
 76
     1
 98
     1
 10
0.000000
 20
0.000000
  0
POLYLINE
  8
0
  6
CONTINUOUS
 66
     1
 40
0.000000
 41
0.000000
 70
     1
  0
VERTEX
  8
0
  6
CONTINUOUS
 10
52.348800
 20
95.760000
  0
VERTEX
  8
0
  6
CONTINUOUS
 10
60.261600
 20
95.760000
  0
VERTEX
  8
0
  6
CONTINUOUS
 10
60.261600
 20
94.416000
  0
VERTEX
  8
0
  6
CONTINUOUS
 10
52.348800
 20
94.416000
  0
SEQEND
  8
0
  0
HATCH
  5
  1015
100
AcDbEntity
  8
0
 62
     7
100
AcDbHatch
 10
0.000000
 20
0.000000
 30
0.000000
210
0.000000
220
0.000000
230
0.016800
  2
SOLID
 70
     1
 71
     0
 91
     1
 92
     1
 93
     4
 72
     1
 10
71.652000
 20
85.713600
 11
72.979200
 21
85.713600
 72
     1
 10
72.979200
 20
85.713600
 11
72.979200
 21
75.532800
 72
     1
 10
72.979200
 20
75.532800
 11
71.652000
 21
75.532800
 72
     1
 10
71.652000
 20
75.532800
 11
71.652000
 21
85.713600
 97
     0
 75
     0
 76
     1
 98
     1
 10
0.000000
 20
0.000000
  0
POLYLINE
  8
0
  6
CONTINUOUS
 66
     1
 40
0.000000
 41
0.000000
 70
     1
  0
VERTEX
  8
0
  6
CONTINUOUS
 10
71.652000
 20
85.713600
  0
VERTEX
  8
0
  6
CONTINUOUS
 10
72.979200
 20
85.713600
  0
VERTEX
  8
0
  6
CONTINUOUS
 10
72.979200
 20
75.532800
  0
VERTEX
  8
0
  6
CONTINUOUS
 10
71.652000
 20
75.532800
  0
SEQEND
  8
0
  0
HATCH
  5
  1016
100
AcDbEntity
  8
0
 62
     7
100
AcDbHatch
 10
0.000000
 20
0.000000
 30
0.000000
210
0.000000
220
0.000000
230
0.016800
  2
SOLID
 70
     1
 71
     0
 91
     1
 92
     1
 93
     4
 72
     1
 10
126.184800
 20
86.251200
 11
134.080800
 21
86.251200
 72
     1
 10
134.080800
 20
86.251200
 11
134.080800
 21
84.907200
 72
     1
 10
134.080800
 20
84.907200
 11
126.184800
 21
84.907200
 72
     1
 10
126.184800
 20
84.907200
 11
126.184800
 21
86.251200
 97
     0
 75
     0
 76
     1
 98
     1
 10
0.000000
 20
0.000000
  0
POLYLINE
  8
0
  6
CONTINUOUS
 66
     1
 40
0.000000
 41
0.000000
 70
     1
  0
VERTEX
  8
0
  6
CONTINUOUS
 10
126.184800
 20
86.251200
  0
VERTEX
  8
0
  6
CONTINUOUS
 10
134.080800
 20
86.251200
  0
VERTEX
  8
0
  6
CONTINUOUS
 10
134.080800
 20
84.907200
  0
VERTEX
  8
0
  6
CONTINUOUS
 10
126.184800
 20
84.907200
  0
SEQEND
  8
0
  0
HATCH
  5
  1017
100
AcDbEntity
  8
0
 62
     7
100
AcDbHatch
 10
0.000000
 20
0.000000
 30
0.000000
210
0.000000
220
0.000000
230
0.016800
  2
SOLID
 70
     1
 71
     0
 91
     1
 92
     1
 93
     4
 72
     1
 10
105.940800
 20
137.440800
 11
107.284800
 21
137.440800
 72
     1
 10
107.284800
 20
137.440800
 11
107.284800
 21
127.260000
 72
     1
 10
107.284800
 20
127.260000
 11
105.940800
 21
127.260000
 72
     1
 10
105.940800
 20
127.260000
 11
105.940800
 21
137.440800
 97
     0
 75
     0
 76
     1
 98
     1
 10
0.000000
 20
0.000000
  0
POLYLINE
  8
0
  6
CONTINUOUS
 66
     1
 40
0.000000
 41
0.000000
 70
     1
  0
VERTEX
  8
0
  6
CONTINUOUS
 10
105.940800
 20
137.440800
  0
VERTEX
  8
0
  6
CONTINUOUS
 10
107.284800
 20
137.440800
  0
VERTEX
  8
0
  6
CONTINUOUS
 10
107.284800
 20
127.260000
  0
VERTEX
  8
0
  6
CONTINUOUS
 10
105.940800
 20
127.260000
  0
SEQEND
  8
0
  0
HATCH
  5
  1018
100
AcDbEntity
  8
0
 62
     7
100
AcDbHatch
 10
0.000000
 20
0.000000
 30
0.000000
210
0.000000
220
0.000000
230
0.016800
  2
SOLID
 70
     1
 71
     0
 91
     1
 92
     1
 93
     4
 72
     1
 10
89.191200
 20
64.814400
 11
90.535200
 21
64.814400
 72
     1
 10
90.535200
 20
64.814400
 11
90.535200
 21
54.616800
 72
     1
 10
90.535200
 20
54.616800
 11
89.191200
 21
54.616800
 72
     1
 10
89.191200
 20
54.616800
 11
89.191200
 21
64.814400
 97
     0
 75
     0
 76
     1
 98
     1
 10
0.000000
 20
0.000000
  0
POLYLINE
  8
0
  6
CONTINUOUS
 66
     1
 40
0.000000
 41
0.000000
 70
     1
  0
VERTEX
  8
0
  6
CONTINUOUS
 10
89.191200
 20
64.814400
  0
VERTEX
  8
0
  6
CONTINUOUS
 10
90.535200
 20
64.814400
  0
VERTEX
  8
0
  6
CONTINUOUS
 10
90.535200
 20
54.616800
  0
VERTEX
  8
0
  6
CONTINUOUS
 10
89.191200
 20
54.616800
  0
SEQEND
  8
0
  0
HATCH
  5
  1019
100
AcDbEntity
  8
0
 62
     7
100
AcDbHatch
 10
0.000000
 20
0.000000
 30
0.000000
210
0.000000
220
0.000000
230
0.016800
  2
SOLID
 70
     1
 71
     0
 91
     1
 92
     1
 93
     4
 72
     1
 10
88.922400
 20
102.732000
 11
90.266400
 21
102.732000
 72
     1
 10
90.266400
 20
102.732000
 11
90.266400
 21
92.551200
 72
     1
 10
90.266400
 20
92.551200
 11
88.922400
 21
92.551200
 72
     1
 10
88.922400
 20
92.551200
 11
88.922400
 21
102.732000
 97
     0
 75
     0
 76
     1
 98
     1
 10
0.000000
 20
0.000000
  0
POLYLINE
  8
0
  6
CONTINUOUS
 66
     1
 40
0.000000
 41
0.000000
 70
     1
  0
VERTEX
  8
0
  6
CONTINUOUS
 10
88.922400
 20
102.732000
  0
VERTEX
  8
0
  6
CONTINUOUS
 10
90.266400
 20
102.732000
  0
VERTEX
  8
0
  6
CONTINUOUS
 10
90.266400
 20
92.551200
  0
VERTEX
  8
0
  6
CONTINUOUS
 10
88.922400
 20
92.551200
  0
SEQEND
  8
0
  0
HATCH
  5
  1020
100
AcDbEntity
  8
0
 62
     7
100
AcDbHatch
 10
0.000000
 20
0.000000
 30
0.000000
210
0.000000
220
0.000000
230
0.016800
  2
SOLID
 70
     1
 71
     0
 91
     1
 92
     1
 93
     4
 72
     1
 10
94.416000
 20
112.644000
 11
102.328800
 21
112.644000
 72
     1
 10
102.328800
 20
112.644000
 11
102.328800
 21
111.300000
 72
     1
 10
102.328800
 20
111.300000
 11
94.416000
 21
111.300000
 72
     1
 10
94.416000
 20
111.300000
 11
94.416000
 21
112.644000
 97
     0
 75
     0
 76
     1
 98
     1
 10
0.000000
 20
0.000000
  0
POLYLINE
  8
0
  6
CONTINUOUS
 66
     1
 40
0.000000
 41
0.000000
 70
     1
  0
VERTEX
  8
0
  6
CONTINUOUS
 10
94.416000
 20
112.644000
  0
VERTEX
  8
0
  6
CONTINUOUS
 10
102.328800
 20
112.644000
  0
VERTEX
  8
0
  6
CONTINUOUS
 10
102.328800
 20
111.300000
  0
VERTEX
  8
0
  6
CONTINUOUS
 10
94.416000
 20
111.300000
  0
SEQEND
  8
0
  0
HATCH
  5
  1021
100
AcDbEntity
  8
0
 62
     7
100
AcDbHatch
 10
0.000000
 20
0.000000
 30
0.000000
210
0.000000
220
0.000000
230
0.016800
  2
SOLID
 70
     1
 71
     0
 91
     1
 92
     1
 93
     4
 72
     1
 10
68.023200
 20
69.636000
 11
75.936000
 21
69.636000
 72
     1
 10
75.936000
 20
69.636000
 11
75.936000
 21
68.292000
 72
     1
 10
75.936000
 20
68.292000
 11
68.023200
 21
68.292000
 72
     1
 10
68.023200
 20
68.292000
 11
68.023200
 21
69.636000
 97
     0
 75
     0
 76
     1
 98
     1
 10
0.000000
 20
0.000000
  0
POLYLINE
  8
0
  6
CONTINUOUS
 66
     1
 40
0.000000
 41
0.000000
 70
     1
  0
VERTEX
  8
0
  6
CONTINUOUS
 10
68.023200
 20
69.636000
  0
VERTEX
  8
0
  6
CONTINUOUS
 10
75.936000
 20
69.636000
  0
VERTEX
  8
0
  6
CONTINUOUS
 10
75.936000
 20
68.292000
  0
VERTEX
  8
0
  6
CONTINUOUS
 10
68.023200
 20
68.292000
  0
SEQEND
  8
0
  0
HATCH
  5
  1022
100
AcDbEntity
  8
0
 62
     7
100
AcDbHatch
 10
0.000000
 20
0.000000
 30
0.000000
210
0.000000
220
0.000000
230
0.016800
  2
SOLID
 70
     1
 71
     0
 91
     1
 92
     1
 93
     4
 72
     1
 10
105.940800
 20
110.896800
 11
107.284800
 21
110.896800
 72
     1
 10
107.284800
 20
110.896800
 11
107.284800
 21
100.716000
 72
     1
 10
107.284800
 20
100.716000
 11
105.940800
 21
100.716000
 72
     1
 10
105.940800
 20
100.716000
 11
105.940800
 21
110.896800
 97
     0
 75
     0
 76
     1
 98
     1
 10
0.000000
 20
0.000000
  0
POLYLINE
  8
0
  6
CONTINUOUS
 66
     1
 40
0.000000
 41
0.000000
 70
     1
  0
VERTEX
  8
0
  6
CONTINUOUS
 10
105.940800
 20
110.896800
  0
VERTEX
  8
0
  6
CONTINUOUS
 10
107.284800
 20
110.896800
  0
VERTEX
  8
0
  6
CONTINUOUS
 10
107.284800
 20
100.716000
  0
VERTEX
  8
0
  6
CONTINUOUS
 10
105.940800
 20
100.716000
  0
SEQEND
  8
0
  0
HATCH
  5
  1023
100
AcDbEntity
  8
0
 62
   253
100
AcDbHatch
 10
0.000000
 20
0.000000
 30
0.000000
210
0.000000
220
0.000000
230
0.016800
  2
SOLID
 70
     1
 71
     0
 91
     1
 92
     1
 93
    21
 72
     1
 10
36.943200
 20
139.036800
 11
49.526400
 21
139.036800
 72
     1
 10
49.526400
 20
139.036800
 11
49.526400
 21
136.231200
 72
     1
 10
49.526400
 20
136.231200
 11
57.708000
 21
136.231200
 72
     1
 10
57.708000
 20
136.231200
 11
57.708000
 21
133.677600
 72
     1
 10
57.708000
 20
133.677600
 11
82.370400
 21
133.677600
 72
     1
 10
82.370400
 20
133.677600
 11
82.370400
 21
137.844000
 72
     1
 10
82.370400
 20
137.844000
 11
124.706400
 21
137.844000
 72
     1
 10
124.706400
 20
137.844000
 11
124.706400
 21
135.156000
 72
     1
 10
124.706400
 20
135.156000
 11
152.846400
 21
135.156000
 72
     1
 10
152.846400
 20
135.156000
 11
152.846400
 21
137.844000
 72
     1
 10
152.846400
 20
137.844000
 11
165.580800
 21
137.844000
 72
     1
 10
165.580800
 20
137.844000
 11
165.580800
 21
126.722400
 72
     1
 10
165.580800
 20
126.722400
 11
164.640000
 21
126.722400
 72
     1
 10
164.640000
 20
126.722400
 11
164.640000
 21
68.426400
 72
     1
 10
164.640000
 20
68.426400
 11
119.750400
 21
68.426400
 72
     1
 10
119.750400
 20
68.426400
 11
105.672000
 21
68.426400
 72
     1
 10
105.672000
 20
68.426400
 11
105.672000
 21
38.539200
 72
     1
 10
105.672000
 20
38.539200
 11
90.535200
 21
38.539200
 72
     1
 10
90.535200
 20
38.539200
 11
90.535200
 21
26.745600
 72
     1
 10
90.535200
 20
26.745600
 11
36.943200
 21
26.745600
 72
     1
 10
36.943200
 20
26.745600
 11
36.943200
 21
139.036800
 97
     0
 75
     0
 76
     1
 98
     1
 10
0.000000
 20
0.000000
  0
POLYLINE
  8
0
  6
CONTINUOUS
 66
     1
 40
0.000000
 41
0.000000
 70
     1
  0
VERTEX
  8
0
  6
CONTINUOUS
 10
36.943200
 20
139.036800
  0
VERTEX
  8
0
  6
CONTINUOUS
 10
49.526400
 20
139.036800
  0
VERTEX
  8
0
  6
CONTINUOUS
 10
49.526400
 20
136.231200
  0
VERTEX
  8
0
  6
CONTINUOUS
 10
57.708000
 20
136.231200
  0
VERTEX
  8
0
  6
CONTINUOUS
 10
57.708000
 20
133.677600
  0
VERTEX
  8
0
  6
CONTINUOUS
 10
82.370400
 20
133.677600
  0
VERTEX
  8
0
  6
CONTINUOUS
 10
82.370400
 20
137.844000
  0
VERTEX
  8
0
  6
CONTINUOUS
 10
124.706400
 20
137.844000
  0
VERTEX
  8
0
  6
CONTINUOUS
 10
124.706400
 20
135.156000
  0
VERTEX
  8
0
  6
CONTINUOUS
 10
152.846400
 20
135.156000
  0
VERTEX
  8
0
  6
CONTINUOUS
 10
152.846400
 20
137.844000
  0
VERTEX
  8
0
  6
CONTINUOUS
 10
165.580800
 20
137.844000
  0
VERTEX
  8
0
  6
CONTINUOUS
 10
165.580800
 20
126.722400
  0
VERTEX
  8
0
  6
CONTINUOUS
 10
164.640000
 20
126.722400
  0
VERTEX
  8
0
  6
CONTINUOUS
 10
164.640000
 20
68.426400
  0
VERTEX
  8
0
  6
CONTINUOUS
 10
119.750400
 20
68.426400
  0
VERTEX
  8
0
  6
CONTINUOUS
 10
105.672000
 20
68.426400
  0
VERTEX
  8
0
  6
CONTINUOUS
 10
105.672000
 20
38.539200
  0
VERTEX
  8
0
  6
CONTINUOUS
 10
90.535200
 20
38.539200
  0
VERTEX
  8
0
  6
CONTINUOUS
 10
90.535200
 20
26.745600
  0
VERTEX
  8
0
  6
CONTINUOUS
 10
36.943200
 20
26.745600
  0
SEQEND
  8
0
  0
HATCH
  5
  1024
100
AcDbEntity
  8
0
 62
     7
100
AcDbHatch
 10
0.000000
 20
0.000000
 30
0.000000
210
0.000000
220
0.000000
230
0.016800
  2
SOLID
 70
     1
 71
     0
 91
     1
 92
     1
 93
     4
 72
     1
 10
36.943200
 20
94.416000
 11
36.943200
 21
69.636000
 72
     1
 10
36.943200
 20
69.636000
 11
71.652000
 21
69.636000
 72
     1
 10
71.652000
 20
69.636000
 11
71.652000
 21
94.416000
 72
     1
 10
71.652000
 20
94.416000
 11
36.943200
 21
94.416000
 97
     0
 75
     0
 76
     1
 98
     1
 10
0.000000
 20
0.000000
  0
POLYLINE
  8
0
  6
CONTINUOUS
 66
     1
 40
0.000000
 41
0.000000
 70
     1
  0
VERTEX
  8
0
  6
CONTINUOUS
 10
36.943200
 20
94.416000
  0
VERTEX
  8
0
  6
CONTINUOUS
 10
36.943200
 20
69.636000
  0
VERTEX
  8
0
  6
CONTINUOUS
 10
71.652000
 20
69.636000
  0
VERTEX
  8
0
  6
CONTINUOUS
 10
71.652000
 20
94.416000
  0
SEQEND
  8
0
  0
HATCH
  5
  1025
100
AcDbEntity
  8
0
 62
     7
100
AcDbHatch
 10
0.000000
 20
0.000000
 30
0.000000
210
0.000000
220
0.000000
230
0.016800
  2
SOLID
 70
     1
 71
     0
 91
     1
 92
     1
 93
     4
 72
     1
 10
90.535200
 20
68.292000
 11
90.535200
 21
38.539200
 72
     1
 10
90.535200
 20
38.539200
 11
105.672000
 21
38.539200
 72
     1
 10
105.672000
 20
38.539200
 11
105.672000
 21
68.292000
 72
     1
 10
105.672000
 20
68.292000
 11
90.535200
 21
68.292000
 97
     0
 75
     0
 76
     1
 98
     1
 10
0.000000
 20
0.000000
  0
POLYLINE
  8
0
  6
CONTINUOUS
 66
     1
 40
0.000000
 41
0.000000
 70
     1
  0
VERTEX
  8
0
  6
CONTINUOUS
 10
90.535200
 20
68.292000
  0
VERTEX
  8
0
  6
CONTINUOUS
 10
90.535200
 20
38.539200
  0
VERTEX
  8
0
  6
CONTINUOUS
 10
105.672000
 20
38.539200
  0
VERTEX
  8
0
  6
CONTINUOUS
 10
105.672000
 20
68.292000
  0
SEQEND
  8
0
  0
HATCH
  5
  1026
100
AcDbEntity
  8
0
 62
     7
100
AcDbHatch
 10
0.000000
 20
0.000000
 30
0.000000
210
0.000000
220
0.000000
230
0.016800
  2
SOLID
 70
     1
 71
     0
 91
     1
 92
     1
 93
    21
 72
     1
 10
36.943200
 20
139.036800
 11
49.526400
 21
139.036800
 72
     1
 10
49.526400
 20
139.036800
 11
49.526400
 21
136.231200
 72
     1
 10
49.526400
 20
136.231200
 11
57.708000
 21
136.231200
 72
     1
 10
57.708000
 20
136.231200
 11
57.708000
 21
133.677600
 72
     1
 10
57.708000
 20
133.677600
 11
82.370400
 21
133.677600
 72
     1
 10
82.370400
 20
133.677600
 11
82.370400
 21
137.844000
 72
     1
 10
82.370400
 20
137.844000
 11
105.940800
 21
137.844000
 72
     1
 10
105.940800
 20
137.844000
 11
105.940800
 21
112.644000
 72
     1
 10
105.940800
 20
112.644000
 11
88.922400
 21
112.644000
 72
     1
 10
88.922400
 20
112.644000
 11
88.922400
 21
84.907200
 72
     1
 10
88.922400
 20
84.907200
 11
164.640000
 21
84.907200
 72
     1
 10
164.640000
 20
84.907200
 11
164.640000
 21
68.426400
 72
     1
 10
164.640000
 20
68.426400
 11
105.672000
 21
68.426400
 72
     1
 10
105.672000
 20
68.426400
 11
105.672000
 21
38.539200
 72
     1
 10
105.672000
 20
38.539200
 11
90.535200
 21
38.539200
 72
     1
 10
90.535200
 20
38.539200
 11
90.535200
 21
26.745600
 72
     1
 10
90.535200
 20
26.745600
 11
90.535200
 21
69.636000
 72
     1
 10
90.535200
 20
69.636000
 11
72.979200
 21
69.636000
 72
     1
 10
72.979200
 20
69.636000
 11
72.979200
 21
95.760000
 72
     1
 10
72.979200
 20
95.760000
 11
36.943200
 21
95.760000
 72
     1
 10
36.943200
 20
95.760000
 11
36.943200
 21
139.036800
 97
     0
 75
     0
 76
     1
 98
     1
 10
0.000000
 20
0.000000
  0
POLYLINE
  8
0
  6
CONTINUOUS
 66
     1
 40
0.000000
 41
0.000000
 70
     1
  0
VERTEX
  8
0
  6
CONTINUOUS
 10
36.943200
 20
139.036800
  0
VERTEX
  8
0
  6
CONTINUOUS
 10
49.526400
 20
139.036800
  0
VERTEX
  8
0
  6
CONTINUOUS
 10
49.526400
 20
136.231200
  0
VERTEX
  8
0
  6
CONTINUOUS
 10
57.708000
 20
136.231200
  0
VERTEX
  8
0
  6
CONTINUOUS
 10
57.708000
 20
133.677600
  0
VERTEX
  8
0
  6
CONTINUOUS
 10
82.370400
 20
133.677600
  0
VERTEX
  8
0
  6
CONTINUOUS
 10
82.370400
 20
137.844000
  0
VERTEX
  8
0
  6
CONTINUOUS
 10
105.940800
 20
137.844000
  0
VERTEX
  8
0
  6
CONTINUOUS
 10
105.940800
 20
112.644000
  0
VERTEX
  8
0
  6
CONTINUOUS
 10
88.922400
 20
112.644000
  0
VERTEX
  8
0
  6
CONTINUOUS
 10
88.922400
 20
84.907200
  0
VERTEX
  8
0
  6
CONTINUOUS
 10
164.640000
 20
84.907200
  0
VERTEX
  8
0
  6
CONTINUOUS
 10
164.640000
 20
68.426400
  0
VERTEX
  8
0
  6
CONTINUOUS
 10
105.672000
 20
68.426400
  0
VERTEX
  8
0
  6
CONTINUOUS
 10
105.672000
 20
38.539200
  0
VERTEX
  8
0
  6
CONTINUOUS
 10
90.535200
 20
38.539200
  0
VERTEX
  8
0
  6
CONTINUOUS
 10
90.535200
 20
26.745600
  0
VERTEX
  8
0
  6
CONTINUOUS
 10
90.535200
 20
69.636000
  0
VERTEX
  8
0
  6
CONTINUOUS
 10
72.979200
 20
69.636000
  0
VERTEX
  8
0
  6
CONTINUOUS
 10
72.979200
 20
95.760000
  0
VERTEX
  8
0
  6
CONTINUOUS
 10
36.943200
 20
95.760000
  0
SEQEND
  8
0
  0
HATCH
  5
  1027
100
AcDbEntity
  8
0
 62
     7
100
AcDbHatch
 10
0.000000
 20
0.000000
 30
0.000000
210
0.000000
220
0.000000
230
0.016800
  2
SOLID
 70
     1
 71
     0
 91
     1
 92
     1
 93
    14
 72
     1
 10
107.284800
 20
137.844000
 11
107.284800
 21
86.251200
 72
     1
 10
107.284800
 20
86.251200
 11
164.640000
 21
86.251200
 72
     1
 10
164.640000
 20
86.251200
 11
164.640000
 21
97.238400
 72
     1
 10
164.640000
 20
97.238400
 11
174.148800
 21
100.044000
 72
     1
 10
174.148800
 20
100.044000
 11
179.239200
 21
106.075200
 72
     1
 10
179.239200
 20
106.075200
 11
179.239200
 21
117.734400
 72
     1
 10
179.239200
 20
117.734400
 11
175.089600
 21
123.765600
 72
     1
 10
175.089600
 20
123.765600
 11
165.580800
 21
126.722400
 72
     1
 10
165.580800
 20
126.722400
 11
165.580800
 21
137.844000
 72
     1
 10
165.580800
 20
137.844000
 11
152.846400
 21
137.844000
 72
     1
 10
152.846400
 20
137.844000
 11
152.846400
 21
135.156000
 72
     1
 10
152.846400
 20
135.156000
 11
124.706400
 21
135.156000
 72
     1
 10
124.706400
 20
135.156000
 11
124.706400
 21
137.844000
 72
     1
 10
124.706400
 20
137.844000
 11
107.284800
 21
137.844000
 97
     0
 75
     0
 76
     1
 98
     1
 10
0.000000
 20
0.000000
  0
POLYLINE
  8
0
  6
CONTINUOUS
 66
     1
 40
0.000000
 41
0.000000
 70
     1
  0
VERTEX
  8
0
  6
CONTINUOUS
 10
107.284800
 20
137.844000
  0
VERTEX
  8
0
  6
CONTINUOUS
 10
107.284800
 20
86.251200
  0
VERTEX
  8
0
  6
CONTINUOUS
 10
164.640000
 20
86.251200
  0
VERTEX
  8
0
  6
CONTINUOUS
 10
164.640000
 20
97.238400
  0
VERTEX
  8
0
  6
CONTINUOUS
 10
174.148800
 20
100.044000
  0
VERTEX
  8
0
  6
CONTINUOUS
 10
179.239200
 20
106.075200
  0
VERTEX
  8
0
  6
CONTINUOUS
 10
179.239200
 20
117.734400
  0
VERTEX
  8
0
  6
CONTINUOUS
 10
175.089600
 20
123.765600
  0
VERTEX
  8
0
  6
CONTINUOUS
 10
165.580800
 20
126.722400
  0
VERTEX
  8
0
  6
CONTINUOUS
 10
165.580800
 20
137.844000
  0
VERTEX
  8
0
  6
CONTINUOUS
 10
152.846400
 20
137.844000
  0
VERTEX
  8
0
  6
CONTINUOUS
 10
152.846400
 20
135.156000
  0
VERTEX
  8
0
  6
CONTINUOUS
 10
124.706400
 20
135.156000
  0
VERTEX
  8
0
  6
CONTINUOUS
 10
124.706400
 20
137.844000
  0
SEQEND
  8
0
  0
HATCH
  5
  1028
100
AcDbEntity
  8
0
 62
     7
100
AcDbHatch
 10
0.000000
 20
0.000000
 30
0.000000
210
0.000000
220
0.000000
230
0.016800
  2
SOLID
 70
     1
 71
     0
 91
     1
 92
     1
 93
     4
 72
     1
 10
90.266400
 20
111.300000
 11
105.940800
 21
111.300000
 72
     1
 10
105.940800
 20
111.300000
 11
105.940800
 21
86.251200
 72
     1
 10
105.940800
 20
86.251200
 11
90.266400
 21
86.251200
 72
     1
 10
90.266400
 20
86.251200
 11
90.266400
 21
111.300000
 97
     0
 75
     0
 76
     1
 98
     1
 10
0.000000
 20
0.000000
  0
POLYLINE
  8
0
  6
CONTINUOUS
 66
     1
 40
0.000000
 41
0.000000
 70
     1
  0
VERTEX
  8
0
  6
CONTINUOUS
 10
90.266400
 20
111.300000
  0
VERTEX
  8
0
  6
CONTINUOUS
 10
105.940800
 20
111.300000
  0
VERTEX
  8
0
  6
CONTINUOUS
 10
105.940800
 20
86.251200
  0
VERTEX
  8
0
  6
CONTINUOUS
 10
90.266400
 20
86.251200
  0
SEQEND
  8
0
  0
HATCH
  5
  1029
100
AcDbEntity
  8
0
 62
     7
100
AcDbHatch
 10
0.000000
 20
0.000000
 30
0.000000
210
0.000000
220
0.000000
230
0.016800
  2
SOLID
 70
     1
 71
     0
 91
     1
 92
     1
 93
     4
 72
     1
 10
36.926400
 20
68.275200
 11
89.191200
 21
68.275200
 72
     1
 10
89.191200
 20
68.275200
 11
89.191200
 21
26.745600
 72
     1
 10
89.191200
 20
26.745600
 11
36.926400
 21
26.745600
 72
     1
 10
36.926400
 20
26.745600
 11
36.926400
 21
68.275200
 97
     0
 75
     0
 76
     1
 98
     1
 10
0.000000
 20
0.000000
  0
POLYLINE
  8
0
  6
CONTINUOUS
 66
     1
 40
0.000000
 41
0.000000
 70
     1
  0
VERTEX
  8
0
  6
CONTINUOUS
 10
36.926400
 20
68.275200
  0
VERTEX
  8
0
  6
CONTINUOUS
 10
89.191200
 20
68.275200
  0
VERTEX
  8
0
  6
CONTINUOUS
 10
89.191200
 20
26.745600
  0
VERTEX
  8
0
  6
CONTINUOUS
 10
36.926400
 20
26.745600
  0
SEQEND
  8
0
  0
POLYLINE
  8
0
 62
    36
  6
CONTINUOUS
 66
     1
 40
1.008000
 41
1.008000
  0
VERTEX
  8
0
 62
    36
  6
CONTINUOUS
 10
105.016800
 20
133.022400
  0
VERTEX
  8
0
 62
    36
  6
CONTINUOUS
 10
165.160800
 20
133.022400
  0
SEQEND
  8
0
  0
POLYLINE
  8
0
 62
    36
  6
CONTINUOUS
 66
     1
 40
1.008000
 41
1.008000
  0
VERTEX
  8
0
 62
    36
  6
CONTINUOUS
 10
105.016800
 20
126.722400
  0
VERTEX
  8
0
 62
    36
  6
CONTINUOUS
 10
165.160800
 20
126.722400
  0
SEQEND
  8
0
  0
POLYLINE
  8
0
 62
    36
  6
CONTINUOUS
 66
     1
 40
1.008000
 41
1.008000
  0
VERTEX
  8
0
 62
    36
  6
CONTINUOUS
 10
105.016800
 20
120.422400
  0
VERTEX
  8
0
 62
    36
  6
CONTINUOUS
 10
176.786400
 20
120.422400
  0
SEQEND
  8
0
  0
POLYLINE
  8
0
 62
    36
  6
CONTINUOUS
 66
     1
 40
1.008000
 41
1.008000
  0
VERTEX
  8
0
 62
    36
  6
CONTINUOUS
 10
105.016800
 20
114.122400
  0
VERTEX
  8
0
 62
    36
  6
CONTINUOUS
 10
178.298400
 20
114.122400
  0
SEQEND
  8
0
  0
POLYLINE
  8
0
 62
    36
  6
CONTINUOUS
 66
     1
 40
1.008000
 41
1.008000
  0
VERTEX
  8
0
 62
    36
  6
CONTINUOUS
 10
105.016800
 20
107.822400
  0
VERTEX
  8
0
 62
    36
  6
CONTINUOUS
 10
178.584000
 20
107.822400
  0
SEQEND
  8
0
  0
POLYLINE
  8
0
 62
    36
  6
CONTINUOUS
 66
     1
 40
1.008000
 41
1.008000
  0
VERTEX
  8
0
 62
    36
  6
CONTINUOUS
 10
105.016800
 20
101.522400
  0
VERTEX
  8
0
 62
    36
  6
CONTINUOUS
 10
174.283200
 20
101.522400
  0
SEQEND
  8
0
  0
POLYLINE
  8
0
 62
    36
  6
CONTINUOUS
 66
     1
 40
1.008000
 41
1.008000
  0
VERTEX
  8
0
 62
    36
  6
CONTINUOUS
 10
105.016800
 20
95.222400
  0
VERTEX
  8
0
 62
    36
  6
CONTINUOUS
 10
164.052000
 20
95.222400
  0
SEQEND
  8
0
  0
POLYLINE
  8
0
 62
    36
  6
CONTINUOUS
 66
     1
 40
1.008000
 41
1.008000
  0
VERTEX
  8
0
 62
    36
  6
CONTINUOUS
 10
105.016800
 20
88.922400
  0
VERTEX
  8
0
 62
    36
  6
CONTINUOUS
 10
164.052000
 20
88.922400
  0
SEQEND
  8
0
  0
POLYLINE
  8
0
 62
    36
  6
CONTINUOUS
 66
     1
 40
1.008000
 41
1.008000
  0
VERTEX
  8
0
 62
    36
  6
CONTINUOUS
 10
37.212000
 20
65.486400
  0
VERTEX
  8
0
 62
    36
  6
CONTINUOUS
 10
105.672000
 20
65.486400
  0
SEQEND
  8
0
  0
POLYLINE
  8
0
 62
    36
  6
CONTINUOUS
 66
     1
 40
1.008000
 41
1.008000
  0
VERTEX
  8
0
 62
    36
  6
CONTINUOUS
 10
37.212000
 20
59.186400
  0
VERTEX
  8
0
 62
    36
  6
CONTINUOUS
 10
105.672000
 20
59.186400
  0
SEQEND
  8
0
  0
POLYLINE
  8
0
 62
    36
  6
CONTINUOUS
 66
     1
 40
1.008000
 41
1.008000
  0
VERTEX
  8
0
 62
    36
  6
CONTINUOUS
 10
37.212000
 20
52.886400
  0
VERTEX
  8
0
 62
    36
  6
CONTINUOUS
 10
105.672000
 20
52.886400
  0
SEQEND
  8
0
  0
POLYLINE
  8
0
 62
    36
  6
CONTINUOUS
 66
     1
 40
1.008000
 41
1.008000
  0
VERTEX
  8
0
 62
    36
  6
CONTINUOUS
 10
37.212000
 20
46.586400
  0
VERTEX
  8
0
 62
    36
  6
CONTINUOUS
 10
105.672000
 20
46.586400
  0
SEQEND
  8
0
  0
POLYLINE
  8
0
 62
    36
  6
CONTINUOUS
 66
     1
 40
1.008000
 41
1.008000
  0
VERTEX
  8
0
 62
    36
  6
CONTINUOUS
 10
37.212000
 20
40.286400
  0
VERTEX
  8
0
 62
    36
  6
CONTINUOUS
 10
105.672000
 20
40.286400
  0
SEQEND
  8
0
  0
POLYLINE
  8
0
 62
    36
  6
CONTINUOUS
 66
     1
 40
1.008000
 41
1.008000
  0
VERTEX
  8
0
 62
    36
  6
CONTINUOUS
 10
37.212000
 20
33.986400
  0
VERTEX
  8
0
 62
    36
  6
CONTINUOUS
 10
89.191200
 20
33.986400
  0
SEQEND
  8
0
  0
POLYLINE
  8
0
 62
    36
  6
CONTINUOUS
 66
     1
 40
1.008000
 41
1.008000
  0
VERTEX
  8
0
 62
    36
  6
CONTINUOUS
 10
37.212000
 20
27.686400
  0
VERTEX
  8
0
 62
    36
  6
CONTINUOUS
 10
89.191200
 20
27.686400
  0
SEQEND
  8
0
  0
POLYLINE
  8
0
 62
    36
  6
CONTINUOUS
 66
     1
 40
1.008000
 41
1.008000
  0
VERTEX
  8
0
 62
    36
  6
CONTINUOUS
 10
105.016800
 20
83.563200
  0
VERTEX
  8
0
 62
    36
  6
CONTINUOUS
 10
164.052000
 20
83.563200
  0
SEQEND
  8
0
  0
POLYLINE
  8
0
 62
    36
  6
CONTINUOUS
 66
     1
 40
1.008000
 41
1.008000
  0
VERTEX
  8
0
 62
    36
  6
CONTINUOUS
 10
104.882400
 20
77.011200
  0
VERTEX
  8
0
 62
    36
  6
CONTINUOUS
 10
163.917600
 20
77.011200
  0
SEQEND
  8
0
  0
POLYLINE
  8
0
 62
    36
  6
CONTINUOUS
 66
     1
 40
1.008000
 41
1.008000
  0
VERTEX
  8
0
 62
    36
  6
CONTINUOUS
 10
105.151200
 20
71.248800
  0
VERTEX
  8
0
 62
    36
  6
CONTINUOUS
 10
164.186400
 20
71.248800
  0
SEQEND
  8
0
  0
POLYLINE
  8
0
 62
    36
  6
CONTINUOUS
 66
     1
 40
1.008000
 41
1.008000
  0
VERTEX
  8
0
 62
    36
  6
CONTINUOUS
 10
37.480800
 20
132.484800
  0
VERTEX
  8
0
 62
    36
  6
CONTINUOUS
 10
108.763200
 20
132.484800
  0
SEQEND
  8
0
  0
POLYLINE
  8
0
 62
    36
  6
CONTINUOUS
 66
     1
 40
1.008000
 41
1.008000
  0
VERTEX
  8
0
 62
    36
  6
CONTINUOUS
 10
37.480800
 20
126.050400
  0
VERTEX
  8
0
 62
    36
  6
CONTINUOUS
 10
108.763200
 20
126.050400
  0
SEQEND
  8
0
  0
POLYLINE
  8
0
 62
    36
  6
CONTINUOUS
 66
     1
 40
1.008000
 41
1.008000
  0
VERTEX
  8
0
 62
    36
  6
CONTINUOUS
 10
37.480800
 20
119.750400
  0
VERTEX
  8
0
 62
    36
  6
CONTINUOUS
 10
108.763200
 20
119.750400
  0
SEQEND
  8
0
  0
POLYLINE
  8
0
 62
    36
  6
CONTINUOUS
 66
     1
 40
1.008000
 41
1.008000
  0
VERTEX
  8
0
 62
    36
  6
CONTINUOUS
 10
37.480800
 20
113.450400
  0
VERTEX
  8
0
 62
    36
  6
CONTINUOUS
 10
108.763200
 20
113.450400
  0
SEQEND
  8
0
  0
POLYLINE
  8
0
 62
    36
  6
CONTINUOUS
 66
     1
 40
1.008000
 41
1.008000
  0
VERTEX
  8
0
 62
    36
  6
CONTINUOUS
 10
37.480800
 20
107.150400
  0
VERTEX
  8
0
 62
    36
  6
CONTINUOUS
 10
108.763200
 20
107.150400
  0
SEQEND
  8
0
  0
POLYLINE
  8
0
 62
    36
  6
CONTINUOUS
 66
     1
 40
1.008000
 41
1.008000
  0
VERTEX
  8
0
 62
    36
  6
CONTINUOUS
 10
37.480800
 20
100.850400
  0
VERTEX
  8
0
 62
    36
  6
CONTINUOUS
 10
108.763200
 20
100.850400
  0
SEQEND
  8
0
  0
POLYLINE
  8
0
 62
    36
  6
CONTINUOUS
 66
     1
 40
1.008000
 41
1.008000
  0
VERTEX
  8
0
 62
    36
  6
CONTINUOUS
 10
36.943200
 20
93.895200
  0
VERTEX
  8
0
 62
    36
  6
CONTINUOUS
 10
108.225600
 20
93.895200
  0
SEQEND
  8
0
  0
POLYLINE
  8
0
 62
    36
  6
CONTINUOUS
 66
     1
 40
1.008000
 41
1.008000
  0
VERTEX
  8
0
 62
    36
  6
CONTINUOUS
 10
37.480800
 20
89.863200
  0
VERTEX
  8
0
 62
    36
  6
CONTINUOUS
 10
108.763200
 20
89.863200
  0
SEQEND
  8
0
  0
POLYLINE
  8
0
 62
    36
  6
CONTINUOUS
 66
     1
 40
1.008000
 41
1.008000
  0
VERTEX
  8
0
 62
    36
  6
CONTINUOUS
 10
37.749600
 20
82.891200
  0
VERTEX
  8
0
 62
    36
  6
CONTINUOUS
 10
109.032000
 20
82.891200
  0
SEQEND
  8
0
  0
POLYLINE
  8
0
 62
    36
  6
CONTINUOUS
 66
     1
 40
1.008000
 41
1.008000
  0
VERTEX
  8
0
 62
    36
  6
CONTINUOUS
 10
37.480800
 20
75.532800
  0
VERTEX
  8
0
 62
    36
  6
CONTINUOUS
 10
72.979200
 20
75.532800
  0
SEQEND
  8
0
  0
POLYLINE
  8
0
 62
    36
  6
CONTINUOUS
 66
     1
 40
1.008000
 41
1.008000
  0
VERTEX
  8
0
 62
    36
  6
CONTINUOUS
 10
37.480800
 20
70.576800
  0
VERTEX
  8
0
 62
    36
  6
CONTINUOUS
 10
108.897600
 20
70.576800
  0
SEQEND
  8
0
  0
POLYLINE
  8
0
 62
    36
  6
CONTINUOUS
 66
     1
 40
1.008000
 41
1.008000
  0
VERTEX
  8
0
 62
    36
  6
CONTINUOUS
 10
94.550400
 20
70.845600
  0
VERTEX
  8
0
 62
    36
  6
CONTINUOUS
 10
94.550400
 20
83.025600
  0
SEQEND
  8
0
  0
POLYLINE
  8
0
 62
    36
  6
CONTINUOUS
 66
     1
 40
1.008000
 41
1.008000
  0
VERTEX
  8
0
 62
    36
  6
CONTINUOUS
 10
107.150400
 20
68.560800
  0
VERTEX
  8
0
 62
    36
  6
CONTINUOUS
 10
107.150400
 20
86.251200
  0
SEQEND
  8
0
  0
POLYLINE
  8
0
 62
    36
  6
CONTINUOUS
 66
     1
 40
1.008000
 41
1.008000
  0
VERTEX
  8
0
 62
    36
  6
CONTINUOUS
 10
94.684800
 20
76.473600
  0
VERTEX
  8
0
 62
    36
  6
CONTINUOUS
 10
108.494400
 20
76.473600
  0
SEQEND
  8
0
  0
POLYLINE
  8
0
 62
    36
  6
CONTINUOUS
 66
     1
 40
1.008000
 41
1.008000
  0
VERTEX
  8
0
 62
    36
  6
CONTINUOUS
 10
71.517600
 20
78.741600
  0
VERTEX
  8
0
 62
    36
  6
CONTINUOUS
 10
94.684800
 20
78.741600
  0
SEQEND
  8
0
  0
POLYLINE
  8
0
 62
    36
  6
CONTINUOUS
 66
     1
 40
1.008000
 41
1.008000
  0
VERTEX
  8
0
 62
    36
  6
CONTINUOUS
 10
139.440000
 20
68.426400
  0
VERTEX
  8
0
 62
    36
  6
CONTINUOUS
 10
139.440000
 20
135.156000
  0
SEQEND
  8
0
  0
POLYLINE
  8
0
 62
    36
  6
CONTINUOUS
 66
     1
 40
1.008000
 41
1.008000
  0
VERTEX
  8
0
 62
    36
  6
CONTINUOUS
 10
59.724000
 20
94.684800
  0
VERTEX
  8
0
 62
    36
  6
CONTINUOUS
 10
59.724000
 20
133.677600
  0
SEQEND
  8
0
  0
POLYLINE
  8
0
 62
    36
  6
CONTINUOUS
 66
     1
 40
1.008000
 41
1.008000
  0
VERTEX
  8
0
 62
    36
  6
CONTINUOUS
 10
59.724000
 20
26.090400
  0
VERTEX
  8
0
 62
    36
  6
CONTINUOUS
 10
59.724000
 20
69.636000
  0
SEQEND
  8
0
  0
POLYLINE
  8
0
 62
    36
  6
CONTINUOUS
 66
     1
 40
1.008000
 41
1.008000
  0
VERTEX
  8
0
 62
    36
  6
CONTINUOUS
 10
37.480800
 20
135.828000
  0
VERTEX
  8
0
 62
    36
  6
CONTINUOUS
 10
57.573600
 20
135.828000
  0
SEQEND
  8
0
  0
POLYLINE
  8
0
 62
    56
  6
CONTINUOUS
 66
     1
 40
1.008000
 41
1.008000
  0
VERTEX
  8
0
 62
    56
  6
CONTINUOUS
 10
36.943200
 20
131.812800
  0
VERTEX
  8
0
 62
    56
  6
CONTINUOUS
 10
54.364800
 20
131.812800
  0
SEQEND
  8
0
  0
POLYLINE
  8
0
 62
    56
  6
CONTINUOUS
 66
     1
 40
1.008000
 41
1.008000
  0
VERTEX
  8
0
 62
    56
  6
CONTINUOUS
 10
36.943200
 20
135.156000
  0
VERTEX
  8
0
 62
    56
  6
CONTINUOUS
 10
54.364800
 20
135.156000
  0
SEQEND
  8
0
  0
POLYLINE
  8
0
 62
    56
  6
CONTINUOUS
 66
     1
 40
1.008000
 41
1.008000
  0
VERTEX
  8
0
 62
    56
  6
CONTINUOUS
 10
36.943200
 20
125.378400
  0
VERTEX
  8
0
 62
    56
  6
CONTINUOUS
 10
54.364800
 20
125.378400
  0
SEQEND
  8
0
  0
POLYLINE
  8
0
 62
    56
  6
CONTINUOUS
 66
     1
 40
1.008000
 41
1.008000
  0
VERTEX
  8
0
 62
    56
  6
CONTINUOUS
 10
36.943200
 20
119.078400
  0
VERTEX
  8
0
 62
    56
  6
CONTINUOUS
 10
54.364800
 20
119.078400
  0
SEQEND
  8
0
  0
POLYLINE
  8
0
 62
    56
  6
CONTINUOUS
 66
     1
 40
1.008000
 41
1.008000
  0
VERTEX
  8
0
 62
    56
  6
CONTINUOUS
 10
147.352800
 20
70.576800
  0
VERTEX
  8
0
 62
    56
  6
CONTINUOUS
 10
164.774400
 20
70.576800
  0
SEQEND
  8
0
  0
POLYLINE
  8
0
 62
    56
  6
CONTINUOUS
 66
     1
 40
1.008000
 41
1.008000
  0
VERTEX
  8
0
 62
    56
  6
CONTINUOUS
 10
147.352800
 20
76.339200
  0
VERTEX
  8
0
 62
    56
  6
CONTINUOUS
 10
164.774400
 20
76.339200
  0
SEQEND
  8
0
  0
POLYLINE
  8
0
 62
    56
  6
CONTINUOUS
 66
     1
 40
1.008000
 41
1.008000
  0
VERTEX
  8
0
 62
    56
  6
CONTINUOUS
 10
147.352800
 20
82.891200
  0
VERTEX
  8
0
 62
    56
  6
CONTINUOUS
 10
164.774400
 20
82.891200
  0
SEQEND
  8
0
  0
POLYLINE
  8
0
 62
    56
  6
CONTINUOUS
 66
     1
 40
1.008000
 41
1.008000
  0
VERTEX
  8
0
 62
    56
  6
CONTINUOUS
 10
147.352800
 20
89.594400
  0
VERTEX
  8
0
 62
    56
  6
CONTINUOUS
 10
164.774400
 20
89.594400
  0
SEQEND
  8
0
  0
POLYLINE
  8
0
 62
    56
  6
CONTINUOUS
 66
     1
 40
1.008000
 41
1.008000
  0
VERTEX
  8
0
 62
    56
  6
CONTINUOUS
 10
158.474400
 20
102.194400
  0
VERTEX
  8
0
 62
    56
  6
CONTINUOUS
 10
175.896000
 20
102.194400
  0
SEQEND
  8
0
  0
POLYLINE
  8
0
 62
    56
  6
CONTINUOUS
 66
     1
 40
1.008000
 41
1.008000
  0
VERTEX
  8
0
 62
    56
  6
CONTINUOUS
 10
161.834400
 20
107.150400
  0
VERTEX
  8
0
 62
    56
  6
CONTINUOUS
 10
179.239200
 20
107.150400
  0
SEQEND
  8
0
  0
POLYLINE
  8
0
 62
    56
  6
CONTINUOUS
 66
     1
 40
1.008000
 41
1.008000
  0
VERTEX
  8
0
 62
    56
  6
CONTINUOUS
 10
161.834400
 20
113.450400
  0
VERTEX
  8
0
 62
    56
  6
CONTINUOUS
 10
179.239200
 20
113.450400
  0
SEQEND
  8
0
  0
POLYLINE
  8
0
 62
    56
  6
CONTINUOUS
 66
     1
 40
1.008000
 41
1.008000
  0
VERTEX
  8
0
 62
    56
  6
CONTINUOUS
 10
160.221600
 20
119.750400
  0
VERTEX
  8
0
 62
    56
  6
CONTINUOUS
 10
177.643200
 20
119.750400
  0
SEQEND
  8
0
  0
POLYLINE
  8
0
 62
    56
  6
CONTINUOUS
 66
     1
 40
1.008000
 41
1.008000
  0
VERTEX
  8
0
 62
    56
  6
CONTINUOUS
 10
149.503200
 20
126.050400
  0
VERTEX
  8
0
 62
    56
  6
CONTINUOUS
 10
166.924800
 20
126.050400
  0
SEQEND
  8
0
  0
POLYLINE
  8
0
 62
    56
  6
CONTINUOUS
 66
     1
 40
1.008000
 41
1.008000
  0
VERTEX
  8
0
 62
    56
  6
CONTINUOUS
 10
148.159200
 20
132.350400
  0
VERTEX
  8
0
 62
    56
  6
CONTINUOUS
 10
165.580800
 20
132.350400
  0
SEQEND
  8
0
  0
POLYLINE
  8
0
 62
    56
  6
CONTINUOUS
 66
     1
 40
1.008000
 41
1.008000
  0
VERTEX
  8
0
 62
    56
  6
CONTINUOUS
 10
36.943200
 20
34.658400
  0
VERTEX
  8
0
 62
    56
  6
CONTINUOUS
 10
54.364800
 20
34.658400
  0
SEQEND
  8
0
  0
POLYLINE
  8
0
 62
    56
  6
CONTINUOUS
 66
     1
 40
1.008000
 41
1.008000
  0
VERTEX
  8
0
 62
    56
  6
CONTINUOUS
 10
36.943200
 20
28.358400
  0
VERTEX
  8
0
 62
    56
  6
CONTINUOUS
 10
54.364800
 20
28.358400
  0
SEQEND
  8
0
  0
POLYLINE
  8
0
 62
    56
  6
CONTINUOUS
 66
     1
 40
1.008000
 41
1.008000
  0
VERTEX
  8
0
 62
    56
  6
CONTINUOUS
 10
36.943200
 20
40.958400
  0
VERTEX
  8
0
 62
    56
  6
CONTINUOUS
 10
54.364800
 20
40.958400
  0
SEQEND
  8
0
  0
POLYLINE
  8
0
 62
    56
  6
CONTINUOUS
 66
     1
 40
1.008000
 41
1.008000
  0
VERTEX
  8
0
 62
    56
  6
CONTINUOUS
 10
36.943200
 20
45.914400
  0
VERTEX
  8
0
 62
    56
  6
CONTINUOUS
 10
54.364800
 20
45.914400
  0
SEQEND
  8
0
  0
POLYLINE
  8
0
 62
    56
  6
CONTINUOUS
 66
     1
 40
1.008000
 41
1.008000
  0
VERTEX
  8
0
 62
    56
  6
CONTINUOUS
 10
36.943200
 20
52.214400
  0
VERTEX
  8
0
 62
    56
  6
CONTINUOUS
 10
54.364800
 20
52.214400
  0
SEQEND
  8
0
  0
POLYLINE
  8
0
 62
    56
  6
CONTINUOUS
 66
     1
 40
1.008000
 41
1.008000
  0
VERTEX
  8
0
 62
    56
  6
CONTINUOUS
 10
36.943200
 20
58.514400
  0
VERTEX
  8
0
 62
    56
  6
CONTINUOUS
 10
54.364800
 20
58.514400
  0
SEQEND
  8
0
  0
POLYLINE
  8
0
 62
    56
  6
CONTINUOUS
 66
     1
 40
1.008000
 41
1.008000
  0
VERTEX
  8
0
 62
    56
  6
CONTINUOUS
 10
36.943200
 20
64.814400
  0
VERTEX
  8
0
 62
    56
  6
CONTINUOUS
 10
54.364800
 20
64.814400
  0
SEQEND
  8
0
  0
POLYLINE
  8
0
 62
    56
  6
CONTINUOUS
 66
     1
 40
1.008000
 41
1.008000
  0
VERTEX
  8
0
 62
    56
  6
CONTINUOUS
 10
147.218400
 20
95.894400
  0
VERTEX
  8
0
 62
    56
  6
CONTINUOUS
 10
164.640000
 20
95.894400
  0
SEQEND
  8
0
  0
POLYLINE
  8
0
 62
    56
  6
CONTINUOUS
 66
     1
 40
1.008000
 41
1.008000
  0
VERTEX
  8
0
 62
    56
  6
CONTINUOUS
 10
37.077600
 20
114.122400
  0
VERTEX
  8
0
 62
    56
  6
CONTINUOUS
 10
54.499200
 20
114.122400
  0
SEQEND
  8
0
  0
ENDSEC
  0
EOF
