  0
SECTION
  2
HEADER
  9
$ACADVER
  1
AC1006
  9
$EXTMIN
 10
29.064000
 20
5.342400
  9
$EXTMAX
 10
185.052000
 20
168.319200
  9
$LTSCALE
 40
1.680000
  9
$PDMODE
 70
    35
  9
$PDSIZE
 40
1.344000
  0
ENDSEC
  0
SECTION
  2
TABLES
  0
TABLE
  2
LTYPE
 70
     9
  0
LTYPE
  2
CONTINUOUS
 70
    64
  3
Solid line
 72
    65
 73
     0
 40
0.000000
  0
LTYPE
  2
DASHED
 70
    64
  3
__ __ __ __ __ __ __ __ __ __ __ __ __ __ __
 72
    65
 73
     2
 40
0.012600
 49
0.008400
 49
-0.004200
  0
LTYPE
  2
HIDDEN
 70
    64
  3
 _ _ _ _ _ _ _ _ _ _ _ _ _ _ _ _ _ _ _ _ _ _
 72
    65
 73
     2
 40
0.006300
 49
0.004200
 49
-0.002100
  0
LTYPE
  2
CENTER
 70
    64
  3
____ _ ____ _ ____ _ ____ _ ____ _ ____ _ ____
 72
    65
 73
     4
 40
0.033600
 49
0.021000
 49
-0.004200
 49
0.004200
 49
-0.004200
  0
LTYPE
  2
PHANTOM
 70
    64
  3
_____ _ _ _____ _ _ _____ _ _ _____ _ _ ____
 72
    65
 73
     6
 40
0.042000
 49
0.021000
 49
-0.004200
 49
0.004200
 49
-0.004200
 49
0.004200
 49
-0.004200
  0
LTYPE
  2
DOT
 70
    64
  3
...............................................
 72
    65
 73
     2
 40
0.004200
 49
0.000000
 49
-0.004200
  0
LTYPE
  2
DASHDOT
 70
    64
  3
__ . __ . __ . __ . __ . __ . __ . __ . __ . __
 72
    65
 73
     4
 40
0.016800
 49
0.008400
 49
-0.004200
 49
0.000000
 49
-0.004200
  0
LTYPE
  2
BORDER
 70
    64
  3
__ __ . __ __ . __ __ . __ __ . __ __ . __ __
 72
    65
 73
     6
 40
0.029400
 49
0.008400
 49
-0.004200
 49
0.008400
 49
-0.004200
 49
0.000000
 49
-0.004200
  0
LTYPE
  2
DIVIDE
 70
    64
  3
__ . . __ . . __ . . __ . . __ . . __ . . __
 72
    65
 73
     6
 40
0.021000
 49
0.008400
 49
-0.004200
 49
0.000000
 49
-0.004200
 49
0.000000
 49
-0.004200
  0
LTYPE
  2
DOTDOT
 70
    64
  3
 . .  . .  . .  . .  . .  . . 
 72
    65
 73
     5
 40
0.009240
 49
-0.004200
 49
0.000000
 49
-0.004200
 49
0.000000
 49
-0.004200
  0
ENDTAB
  0
TABLE
  2
STYLE
 70
     4
  0
STYLE
 70
     0
  2
SN0
 40
0.000000
 41
0.016800
 50
0.000000
 71
     0
 42
0.000000
  3
ROMAND
  0
STYLE
 70
    68
  2
SV0
 40
0.000000
 41
0.016800
 50
0.000000
 71
     0
 42
0.000000
  3
ROMAND
  0
STYLE
 70
     0
  2
SN1
 40
0.000000
 41
0.016800
 50
0.000000
 71
     0
 42
0.000000
  3
ROMAND
  0
STYLE
 70
    68
  2
SV1
 40
0.000000
 41
0.016800
 50
0.000000
 71
     0
 42
0.000000
  3
ROMAND
  0
ENDTAB
  0
TABLE
  2
LAYER
 70
     3
  0
LAYER
  2
FOREGROUND
 70
    64
 62
     7
  6
CONTINUOUS
  0
LAYER
  2
BACKGROUND
 70
    65
 62
    -7
  6
CONTINUOUS
  0
LAYER
  2
0
 70
    64
 62
     7
  6
CONTINUOUS
  0
ENDTAB
  0
ENDSEC
  0
SECTION
  2
ENTITIES
  0
HATCH
  5
  2766
100
AcDbEntity
  8
0
 62
   254
100
AcDbHatch
 10
0.000000
 20
0.000000
 30
0.000000
210
0.000000
220
0.000000
230
0.016800
  2
SOLID
 70
     1
 71
     0
 91
     1
 92
     1
 93
    35
 72
     1
 10
170.268000
 20
58.010400
 11
169.730400
 21
58.329600
 72
     1
 10
169.730400
 20
58.329600
 11
168.739200
 21
59.337600
 72
     1
 10
168.739200
 20
59.337600
 11
168.588000
 21
59.404800
 72
     1
 10
168.588000
 20
59.404800
 11
168.319200
 21
59.354400
 72
     1
 10
168.319200
 20
59.354400
 11
168.084000
 21
59.085600
 72
     1
 10
168.084000
 20
59.085600
 11
167.529600
 21
58.228800
 72
     1
 10
167.529600
 20
58.228800
 11
167.277600
 21
58.044000
 72
     1
 10
167.277600
 20
58.044000
 11
167.143200
 21
58.044000
 72
     1
 10
167.143200
 20
58.044000
 11
166.521600
 21
58.531200
 72
     1
 10
166.521600
 20
58.531200
 11
166.353600
 21
58.581600
 72
     1
 10
166.353600
 20
58.581600
 11
166.068000
 21
58.531200
 72
     1
 10
166.068000
 20
58.531200
 11
165.698400
 21
58.228800
 72
     1
 10
165.698400
 20
58.228800
 11
165.228000
 21
57.405600
 72
     1
 10
165.228000
 20
57.405600
 11
165.228000
 21
57.388800
 72
     1
 10
165.228000
 20
57.388800
 11
165.244800
 21
98.616000
 72
     1
 10
165.244800
 20
98.616000
 11
180.348000
 21
112.526400
 72
     1
 10
180.348000
 20
112.526400
 11
180.348000
 21
127.646400
 72
     1
 10
180.348000
 20
127.646400
 11
165.228000
 21
141.808800
 72
     1
 10
165.228000
 20
141.808800
 11
165.228000
 21
164.001600
 72
     1
 10
165.228000
 20
164.001600
 11
166.000800
 21
164.304000
 72
     1
 10
166.000800
 20
164.304000
 11
166.588800
 21
164.388000
 72
     1
 10
166.588800
 20
164.388000
 11
167.042400
 21
164.337600
 72
     1
 10
167.042400
 20
164.337600
 11
167.361600
 21
164.119200
 72
     1
 10
167.361600
 20
164.119200
 11
167.848800
 21
163.161600
 72
     1
 10
167.848800
 20
163.161600
 11
168.168000
 21
162.943200
 72
     1
 10
168.168000
 20
162.943200
 11
168.621600
 21
162.909600
 72
     1
 10
168.621600
 20
162.909600
 11
169.276800
 21
163.027200
 72
     1
 10
169.276800
 20
163.027200
 11
170.234400
 21
163.413600
 72
     1
 10
170.234400
 20
163.413600
 11
170.234400
 21
142.094400
 72
     1
 10
170.234400
 20
142.094400
 11
171.964800
 21
142.094400
 72
     1
 10
171.964800
 20
142.094400
 11
185.035200
 21
129.796800
 72
     1
 10
185.035200
 20
129.796800
 11
185.035200
 21
111.081600
 72
     1
 10
185.035200
 20
111.081600
 11
171.998400
 21
98.565600
 72
     1
 10
171.998400
 20
98.565600
 11
170.268000
 21
98.599200
 72
     1
 10
170.268000
 20
98.599200
 11
170.268000
 21
58.010400
 97
     0
 75
     0
 76
     1
 98
     1
 10
0.000000
 20
0.000000
  0
POLYLINE
  8
0
  6
CONTINUOUS
 66
     1
 40
0.000000
 41
0.000000
 70
     1
  0
VERTEX
  8
0
  6
CONTINUOUS
 10
170.268000
 20
58.010400
  0
VERTEX
  8
0
  6
CONTINUOUS
 10
169.730400
 20
58.329600
  0
VERTEX
  8
0
  6
CONTINUOUS
 10
168.739200
 20
59.337600
  0
VERTEX
  8
0
  6
CONTINUOUS
 10
168.588000
 20
59.404800
  0
VERTEX
  8
0
  6
CONTINUOUS
 10
168.319200
 20
59.354400
  0
VERTEX
  8
0
  6
CONTINUOUS
 10
168.084000
 20
59.085600
  0
VERTEX
  8
0
  6
CONTINUOUS
 10
167.529600
 20
58.228800
  0
VERTEX
  8
0
  6
CONTINUOUS
 10
167.277600
 20
58.044000
  0
VERTEX
  8
0
  6
CONTINUOUS
 10
167.143200
 20
58.044000
  0
VERTEX
  8
0
  6
CONTINUOUS
 10
166.521600
 20
58.531200
  0
VERTEX
  8
0
  6
CONTINUOUS
 10
166.353600
 20
58.581600
  0
VERTEX
  8
0
  6
CONTINUOUS
 10
166.068000
 20
58.531200
  0
VERTEX
  8
0
  6
CONTINUOUS
 10
165.698400
 20
58.228800
  0
VERTEX
  8
0
  6
CONTINUOUS
 10
165.228000
 20
57.405600
  0
VERTEX
  8
0
  6
CONTINUOUS
 10
165.228000
 20
57.388800
  0
VERTEX
  8
0
  6
CONTINUOUS
 10
165.244800
 20
98.616000
  0
VERTEX
  8
0
  6
CONTINUOUS
 10
180.348000
 20
112.526400
  0
VERTEX
  8
0
  6
CONTINUOUS
 10
180.348000
 20
127.646400
  0
VERTEX
  8
0
  6
CONTINUOUS
 10
165.228000
 20
141.808800
  0
VERTEX
  8
0
  6
CONTINUOUS
 10
165.228000
 20
164.001600
  0
VERTEX
  8
0
  6
CONTINUOUS
 10
166.000800
 20
164.304000
  0
VERTEX
  8
0
  6
CONTINUOUS
 10
166.588800
 20
164.388000
  0
VERTEX
  8
0
  6
CONTINUOUS
 10
167.042400
 20
164.337600
  0
VERTEX
  8
0
  6
CONTINUOUS
 10
167.361600
 20
164.119200
  0
VERTEX
  8
0
  6
CONTINUOUS
 10
167.848800
 20
163.161600
  0
VERTEX
  8
0
  6
CONTINUOUS
 10
168.168000
 20
162.943200
  0
VERTEX
  8
0
  6
CONTINUOUS
 10
168.621600
 20
162.909600
  0
VERTEX
  8
0
  6
CONTINUOUS
 10
169.276800
 20
163.027200
  0
VERTEX
  8
0
  6
CONTINUOUS
 10
170.234400
 20
163.413600
  0
VERTEX
  8
0
  6
CONTINUOUS
 10
170.234400
 20
142.094400
  0
VERTEX
  8
0
  6
CONTINUOUS
 10
171.964800
 20
142.094400
  0
VERTEX
  8
0
  6
CONTINUOUS
 10
185.035200
 20
129.796800
  0
VERTEX
  8
0
  6
CONTINUOUS
 10
185.035200
 20
111.081600
  0
VERTEX
  8
0
  6
CONTINUOUS
 10
171.998400
 20
98.565600
  0
VERTEX
  8
0
  6
CONTINUOUS
 10
170.268000
 20
98.599200
  0
SEQEND
  8
0
  0
HATCH
  5
  2767
100
AcDbEntity
  8
0
 62
    31
100
AcDbHatch
 10
0.000000
 20
0.000000
 30
0.000000
210
0.000000
220
0.000000
230
0.016800
  2
SOLID
 70
     1
 71
     0
 91
     1
 92
     1
 93
     8
 72
     1
 10
165.396000
 20
95.155200
 11
122.186400
 21
95.155200
 72
     1
 10
122.186400
 20
95.155200
 11
122.186400
 21
92.988000
 72
     1
 10
122.186400
 20
92.988000
 11
152.762400
 21
92.988000
 72
     1
 10
152.762400
 20
92.988000
 11
152.762400
 21
92.047200
 72
     1
 10
152.762400
 20
92.047200
 11
154.929600
 21
92.047200
 72
     1
 10
154.929600
 20
92.047200
 11
154.929600
 21
92.988000
 72
     1
 10
154.929600
 20
92.988000
 11
165.446400
 21
92.988000
 72
     1
 10
165.446400
 20
92.988000
 11
165.396000
 21
95.155200
 97
     0
 75
     0
 76
     1
 98
     1
 10
0.000000
 20
0.000000
  0
POLYLINE
  8
0
  6
CONTINUOUS
 66
     1
 40
0.000000
 41
0.000000
 70
     1
  0
VERTEX
  8
0
  6
CONTINUOUS
 10
165.396000
 20
95.155200
  0
VERTEX
  8
0
  6
CONTINUOUS
 10
122.186400
 20
95.155200
  0
VERTEX
  8
0
  6
CONTINUOUS
 10
122.186400
 20
92.988000
  0
VERTEX
  8
0
  6
CONTINUOUS
 10
152.762400
 20
92.988000
  0
VERTEX
  8
0
  6
CONTINUOUS
 10
152.762400
 20
92.047200
  0
VERTEX
  8
0
  6
CONTINUOUS
 10
154.929600
 20
92.047200
  0
VERTEX
  8
0
  6
CONTINUOUS
 10
154.929600
 20
92.988000
  0
VERTEX
  8
0
  6
CONTINUOUS
 10
165.446400
 20
92.988000
  0
SEQEND
  8
0
  0
HATCH
  5
  2768
100
AcDbEntity
  8
0
 62
    30
100
AcDbHatch
 10
0.000000
 20
0.000000
 30
0.000000
210
0.000000
220
0.000000
230
0.016800
  2
SOLID
 70
     1
 71
     0
 91
     1
 92
     1
 93
     4
 72
     1
 10
155.299200
 20
79.984800
 11
152.073600
 21
79.984800
 72
     1
 10
152.073600
 20
79.984800
 11
152.073600
 21
78.372000
 72
     1
 10
152.073600
 20
78.372000
 11
155.299200
 21
78.372000
 72
     1
 10
155.299200
 20
78.372000
 11
155.299200
 21
79.984800
 97
     0
 75
     0
 76
     1
 98
     1
 10
0.000000
 20
0.000000
  0
POLYLINE
  8
0
  6
CONTINUOUS
 66
     1
 40
0.000000
 41
0.000000
 70
     1
  0
VERTEX
  8
0
  6
CONTINUOUS
 10
155.299200
 20
79.984800
  0
VERTEX
  8
0
  6
CONTINUOUS
 10
152.073600
 20
79.984800
  0
VERTEX
  8
0
  6
CONTINUOUS
 10
152.073600
 20
78.372000
  0
VERTEX
  8
0
  6
CONTINUOUS
 10
155.299200
 20
78.372000
  0
SEQEND
  8
0
  0
HATCH
  5
  2769
100
AcDbEntity
  8
0
 62
     2
100
AcDbHatch
 10
0.000000
 20
0.000000
 30
0.000000
210
0.000000
220
0.000000
230
0.016800
  2
SOLID
 70
     1
 71
     0
 91
     1
 92
     1
 93
     4
 72
     1
 10
153.283200
 20
92.131200
 11
152.476800
 21
92.131200
 72
     1
 10
152.476800
 20
92.131200
 11
152.476800
 21
79.850400
 72
     1
 10
152.476800
 20
79.850400
 11
153.283200
 21
79.850400
 72
     1
 10
153.283200
 20
79.850400
 11
153.283200
 21
92.131200
 97
     0
 75
     0
 76
     1
 98
     1
 10
0.000000
 20
0.000000
  0
POLYLINE
  8
0
  6
CONTINUOUS
 66
     1
 40
0.000000
 41
0.000000
 70
     1
  0
VERTEX
  8
0
  6
CONTINUOUS
 10
153.283200
 20
92.131200
  0
VERTEX
  8
0
  6
CONTINUOUS
 10
152.476800
 20
92.131200
  0
VERTEX
  8
0
  6
CONTINUOUS
 10
152.476800
 20
79.850400
  0
VERTEX
  8
0
  6
CONTINUOUS
 10
153.283200
 20
79.850400
  0
SEQEND
  8
0
  0
HATCH
  5
  2770
100
AcDbEntity
  8
0
 62
     2
100
AcDbHatch
 10
0.000000
 20
0.000000
 30
0.000000
210
0.000000
220
0.000000
230
0.016800
  2
SOLID
 70
     1
 71
     0
 91
     1
 92
     1
 93
     4
 72
     1
 10
144.362400
 20
89.107200
 11
143.791200
 21
88.536000
 72
     1
 10
143.791200
 20
88.536000
 11
152.476800
 21
79.850400
 72
     1
 10
152.476800
 20
79.850400
 11
153.048000
 21
80.421600
 72
     1
 10
153.048000
 20
80.421600
 11
144.362400
 21
89.107200
 97
     0
 75
     0
 76
     1
 98
     1
 10
0.000000
 20
0.000000
  0
POLYLINE
  8
0
  6
CONTINUOUS
 66
     1
 40
0.000000
 41
0.000000
 70
     1
  0
VERTEX
  8
0
  6
CONTINUOUS
 10
144.362400
 20
89.107200
  0
VERTEX
  8
0
  6
CONTINUOUS
 10
143.791200
 20
88.536000
  0
VERTEX
  8
0
  6
CONTINUOUS
 10
152.476800
 20
79.850400
  0
VERTEX
  8
0
  6
CONTINUOUS
 10
153.048000
 20
80.421600
  0
SEQEND
  8
0
  0
HATCH
  5
  2771
100
AcDbEntity
  8
0
 62
     2
100
AcDbHatch
 10
0.000000
 20
0.000000
 30
0.000000
210
0.000000
220
0.000000
230
0.016800
  2
SOLID
 70
     1
 71
     0
 91
     1
 92
     1
 93
     4
 72
     1
 10
170.217600
 20
92.803200
 11
169.612800
 21
92.803200
 72
     1
 10
169.612800
 20
92.803200
 11
169.612800
 21
85.780800
 72
     1
 10
169.612800
 20
85.780800
 11
170.217600
 21
85.780800
 72
     1
 10
170.217600
 20
85.780800
 11
170.217600
 21
92.803200
 97
     0
 75
     0
 76
     1
 98
     1
 10
0.000000
 20
0.000000
  0
POLYLINE
  8
0
  6
CONTINUOUS
 66
     1
 40
0.000000
 41
0.000000
 70
     1
  0
VERTEX
  8
0
  6
CONTINUOUS
 10
170.217600
 20
92.803200
  0
VERTEX
  8
0
  6
CONTINUOUS
 10
169.612800
 20
92.803200
  0
VERTEX
  8
0
  6
CONTINUOUS
 10
169.612800
 20
85.780800
  0
VERTEX
  8
0
  6
CONTINUOUS
 10
170.217600
 20
85.780800
  0
SEQEND
  8
0
  0
HATCH
  5
  2772
100
AcDbEntity
  8
0
 62
     2
100
AcDbHatch
 10
0.000000
 20
0.000000
 30
0.000000
210
0.000000
220
0.000000
230
0.016800
  2
SOLID
 70
     1
 71
     0
 91
     1
 92
     1
 93
     4
 72
     1
 10
170.217600
 20
92.803200
 11
169.797600
 21
93.240000
 72
     1
 10
169.797600
 20
93.240000
 11
164.824800
 21
88.267200
 72
     1
 10
164.824800
 20
88.267200
 11
165.261600
 21
87.847200
 72
     1
 10
165.261600
 20
87.847200
 11
170.217600
 21
92.803200
 97
     0
 75
     0
 76
     1
 98
     1
 10
0.000000
 20
0.000000
  0
POLYLINE
  8
0
  6
CONTINUOUS
 66
     1
 40
0.000000
 41
0.000000
 70
     1
  0
VERTEX
  8
0
  6
CONTINUOUS
 10
170.217600
 20
92.803200
  0
VERTEX
  8
0
  6
CONTINUOUS
 10
169.797600
 20
93.240000
  0
VERTEX
  8
0
  6
CONTINUOUS
 10
164.824800
 20
88.267200
  0
VERTEX
  8
0
  6
CONTINUOUS
 10
165.261600
 20
87.847200
  0
SEQEND
  8
0
  0
HATCH
  5
  2773
100
AcDbEntity
  8
0
 62
     2
100
AcDbHatch
 10
0.000000
 20
0.000000
 30
0.000000
210
0.000000
220
0.000000
230
0.016800
  2
SOLID
 70
     1
 71
     0
 91
     1
 92
     1
 93
     4
 72
     1
 10
170.217600
 20
92.803200
 11
170.217600
 21
93.424800
 72
     1
 10
170.217600
 20
93.424800
 11
163.212000
 21
93.424800
 72
     1
 10
163.212000
 20
93.424800
 11
163.212000
 21
92.803200
 72
     1
 10
163.212000
 20
92.803200
 11
170.217600
 21
92.803200
 97
     0
 75
     0
 76
     1
 98
     1
 10
0.000000
 20
0.000000
  0
POLYLINE
  8
0
  6
CONTINUOUS
 66
     1
 40
0.000000
 41
0.000000
 70
     1
  0
VERTEX
  8
0
  6
CONTINUOUS
 10
170.217600
 20
92.803200
  0
VERTEX
  8
0
  6
CONTINUOUS
 10
170.217600
 20
93.424800
  0
VERTEX
  8
0
  6
CONTINUOUS
 10
163.212000
 20
93.424800
  0
VERTEX
  8
0
  6
CONTINUOUS
 10
163.212000
 20
92.803200
  0
SEQEND
  8
0
  0
HATCH
  5
  2774
100
AcDbEntity
  8
0
 62
     2
100
AcDbHatch
 10
0.000000
 20
0.000000
 30
0.000000
210
0.000000
220
0.000000
230
0.016800
  2
SOLID
 70
     1
 71
     0
 91
     1
 92
     1
 93
     4
 72
     1
 10
170.217600
 20
78.439200
 11
169.612800
 21
78.439200
 72
     1
 10
169.612800
 20
78.439200
 11
169.612800
 21
85.444800
 72
     1
 10
169.612800
 20
85.444800
 11
170.217600
 21
85.444800
 72
     1
 10
170.217600
 20
85.444800
 11
170.217600
 21
78.439200
 97
     0
 75
     0
 76
     1
 98
     1
 10
0.000000
 20
0.000000
  0
POLYLINE
  8
0
  6
CONTINUOUS
 66
     1
 40
0.000000
 41
0.000000
 70
     1
  0
VERTEX
  8
0
  6
CONTINUOUS
 10
170.217600
 20
78.439200
  0
VERTEX
  8
0
  6
CONTINUOUS
 10
169.612800
 20
78.439200
  0
VERTEX
  8
0
  6
CONTINUOUS
 10
169.612800
 20
85.444800
  0
VERTEX
  8
0
  6
CONTINUOUS
 10
170.217600
 20
85.444800
  0
SEQEND
  8
0
  0
HATCH
  5
  2775
100
AcDbEntity
  8
0
 62
     2
100
AcDbHatch
 10
0.000000
 20
0.000000
 30
0.000000
210
0.000000
220
0.000000
230
0.016800
  2
SOLID
 70
     1
 71
     0
 91
     1
 92
     1
 93
     4
 72
     1
 10
170.217600
 20
78.439200
 11
169.797600
 21
78.002400
 72
     1
 10
169.797600
 20
78.002400
 11
164.824800
 21
82.958400
 72
     1
 10
164.824800
 20
82.958400
 11
165.261600
 21
83.395200
 72
     1
 10
165.261600
 20
83.395200
 11
170.217600
 21
78.439200
 97
     0
 75
     0
 76
     1
 98
     1
 10
0.000000
 20
0.000000
  0
POLYLINE
  8
0
  6
CONTINUOUS
 66
     1
 40
0.000000
 41
0.000000
 70
     1
  0
VERTEX
  8
0
  6
CONTINUOUS
 10
170.217600
 20
78.439200
  0
VERTEX
  8
0
  6
CONTINUOUS
 10
169.797600
 20
78.002400
  0
VERTEX
  8
0
  6
CONTINUOUS
 10
164.824800
 20
82.958400
  0
VERTEX
  8
0
  6
CONTINUOUS
 10
165.261600
 20
83.395200
  0
SEQEND
  8
0
  0
HATCH
  5
  2776
100
AcDbEntity
  8
0
 62
     2
100
AcDbHatch
 10
0.000000
 20
0.000000
 30
0.000000
210
0.000000
220
0.000000
230
0.016800
  2
SOLID
 70
     1
 71
     0
 91
     1
 92
     1
 93
     4
 72
     1
 10
170.217600
 20
78.439200
 11
170.217600
 21
77.817600
 72
     1
 10
170.217600
 20
77.817600
 11
163.212000
 21
77.817600
 72
     1
 10
163.212000
 20
77.817600
 11
163.212000
 21
78.439200
 72
     1
 10
163.212000
 20
78.439200
 11
170.217600
 21
78.439200
 97
     0
 75
     0
 76
     1
 98
     1
 10
0.000000
 20
0.000000
  0
POLYLINE
  8
0
  6
CONTINUOUS
 66
     1
 40
0.000000
 41
0.000000
 70
     1
  0
VERTEX
  8
0
  6
CONTINUOUS
 10
170.217600
 20
78.439200
  0
VERTEX
  8
0
  6
CONTINUOUS
 10
170.217600
 20
77.817600
  0
VERTEX
  8
0
  6
CONTINUOUS
 10
163.212000
 20
77.817600
  0
VERTEX
  8
0
  6
CONTINUOUS
 10
163.212000
 20
78.439200
  0
SEQEND
  8
0
  0
HATCH
  5
  2777
100
AcDbEntity
  8
0
 62
    30
100
AcDbHatch
 10
0.000000
 20
0.000000
 30
0.000000
210
0.000000
220
0.000000
230
0.016800
  2
SOLID
 70
     1
 71
     0
 91
     1
 92
     1
 93
     4
 72
     1
 10
155.366400
 20
93.559200
 11
152.140800
 21
93.559200
 72
     1
 10
152.140800
 20
93.559200
 11
152.140800
 21
91.929600
 72
     1
 10
152.140800
 20
91.929600
 11
155.366400
 21
91.929600
 72
     1
 10
155.366400
 20
91.929600
 11
155.366400
 21
93.559200
 97
     0
 75
     0
 76
     1
 98
     1
 10
0.000000
 20
0.000000
  0
POLYLINE
  8
0
  6
CONTINUOUS
 66
     1
 40
0.000000
 41
0.000000
 70
     1
  0
VERTEX
  8
0
  6
CONTINUOUS
 10
155.366400
 20
93.559200
  0
VERTEX
  8
0
  6
CONTINUOUS
 10
152.140800
 20
93.559200
  0
VERTEX
  8
0
  6
CONTINUOUS
 10
152.140800
 20
91.929600
  0
VERTEX
  8
0
  6
CONTINUOUS
 10
155.366400
 20
91.929600
  0
SEQEND
  8
0
  0
HATCH
  5
  2778
100
AcDbEntity
  8
0
 62
     9
100
AcDbHatch
 10
0.000000
 20
0.000000
 30
0.000000
210
0.000000
220
0.000000
230
0.016800
  2
SOLID
 70
     1
 71
     0
 91
     1
 92
     1
 93
    12
 72
     1
 10
29.601600
 20
168.285600
 11
29.601600
 21
24.628800
 72
     1
 10
29.601600
 20
24.628800
 11
36.926400
 21
24.645600
 72
     1
 10
36.926400
 20
24.645600
 11
36.926400
 21
55.372800
 72
     1
 10
36.926400
 20
55.372800
 11
33.566400
 21
57.069600
 72
     1
 10
33.566400
 20
57.069600
 11
33.566400
 21
68.829600
 72
     1
 10
33.566400
 20
68.829600
 11
36.926400
 21
71.366400
 72
     1
 10
36.926400
 20
71.366400
 11
36.926400
 21
123.144000
 72
     1
 10
36.926400
 20
123.144000
 11
33.146400
 21
124.588800
 72
     1
 10
33.146400
 20
124.588800
 11
33.146400
 21
136.869600
 72
     1
 10
33.146400
 20
136.869600
 11
37.060800
 21
138.902400
 72
     1
 10
37.060800
 20
138.902400
 11
36.926400
 21
168.285600
 72
     1
 10
36.926400
 20
168.285600
 11
29.601600
 21
168.285600
 97
     0
 75
     0
 76
     1
 98
     1
 10
0.000000
 20
0.000000
  0
POLYLINE
  8
0
  6
CONTINUOUS
 66
     1
 40
0.000000
 41
0.000000
 70
     1
  0
VERTEX
  8
0
  6
CONTINUOUS
 10
29.601600
 20
168.285600
  0
VERTEX
  8
0
  6
CONTINUOUS
 10
29.601600
 20
24.628800
  0
VERTEX
  8
0
  6
CONTINUOUS
 10
36.926400
 20
24.645600
  0
VERTEX
  8
0
  6
CONTINUOUS
 10
36.926400
 20
55.372800
  0
VERTEX
  8
0
  6
CONTINUOUS
 10
33.566400
 20
57.069600
  0
VERTEX
  8
0
  6
CONTINUOUS
 10
33.566400
 20
68.829600
  0
VERTEX
  8
0
  6
CONTINUOUS
 10
36.926400
 20
71.366400
  0
VERTEX
  8
0
  6
CONTINUOUS
 10
36.926400
 20
123.144000
  0
VERTEX
  8
0
  6
CONTINUOUS
 10
33.146400
 20
124.588800
  0
VERTEX
  8
0
  6
CONTINUOUS
 10
33.146400
 20
136.869600
  0
VERTEX
  8
0
  6
CONTINUOUS
 10
37.060800
 20
138.902400
  0
VERTEX
  8
0
  6
CONTINUOUS
 10
36.926400
 20
168.285600
  0
SEQEND
  8
0
  0
LINE
  8
0
  6
CONTINUOUS
 10
107.318400
 20
77.683200
 11
107.318400
 21
75.532800
  0
HATCH
  5
  2779
100
AcDbEntity
  8
0
 62
    31
100
AcDbHatch
 10
0.000000
 20
0.000000
 30
0.000000
210
0.000000
220
0.000000
230
0.016800
  2
SOLID
 70
     1
 71
     0
 91
     1
 92
     1
 93
    24
 72
     1
 10
124.017600
 20
151.468800
 11
124.017600
 21
147.588000
 72
     1
 10
124.017600
 20
147.588000
 11
77.515200
 21
147.588000
 72
     1
 10
77.515200
 20
147.588000
 11
77.515200
 21
142.716000
 72
     1
 10
77.515200
 20
142.716000
 11
59.287200
 21
142.716000
 72
     1
 10
59.287200
 20
142.716000
 11
59.287200
 21
143.505600
 72
     1
 10
59.287200
 20
143.505600
 11
59.304000
 21
143.505600
 72
     1
 10
59.304000
 20
143.505600
 11
59.304000
 21
145.521600
 72
     1
 10
59.304000
 20
145.521600
 11
51.542400
 21
145.521600
 72
     1
 10
51.542400
 20
145.521600
 11
51.542400
 21
148.545600
 72
     1
 10
51.542400
 20
148.545600
 11
36.909600
 21
148.545600
 72
     1
 10
36.909600
 20
148.545600
 11
36.909600
 21
146.529600
 72
     1
 10
36.909600
 20
146.529600
 11
49.526400
 21
146.529600
 72
     1
 10
49.526400
 20
146.529600
 11
49.526400
 21
143.505600
 72
     1
 10
49.526400
 20
143.505600
 11
57.271200
 21
143.505600
 72
     1
 10
57.271200
 20
143.505600
 11
57.271200
 21
140.700000
 72
     1
 10
57.271200
 20
140.700000
 11
79.531200
 21
140.700000
 72
     1
 10
79.531200
 20
140.700000
 11
79.531200
 21
144.732000
 72
     1
 10
79.531200
 20
144.732000
 11
89.308800
 21
144.732000
 72
     1
 10
89.308800
 20
144.732000
 11
89.308800
 21
145.572000
 72
     1
 10
89.308800
 20
145.572000
 11
126.033600
 21
145.572000
 72
     1
 10
126.033600
 20
145.572000
 11
126.033600
 21
149.452800
 72
     1
 10
126.033600
 20
149.452800
 11
153.064800
 21
149.452800
 72
     1
 10
153.064800
 20
149.452800
 11
153.064800
 21
151.468800
 72
     1
 10
153.064800
 20
151.468800
 11
124.017600
 21
151.468800
 97
     0
 75
     0
 76
     1
 98
     1
 10
0.000000
 20
0.000000
  0
POLYLINE
  8
0
 62
    31
  6
CONTINUOUS
 66
     1
 40
0.000000
 41
0.000000
 70
     1
  0
VERTEX
  8
0
 62
    31
  6
CONTINUOUS
 10
124.017600
 20
151.468800
  0
VERTEX
  8
0
 62
    31
  6
CONTINUOUS
 10
124.017600
 20
147.588000
  0
VERTEX
  8
0
 62
    31
  6
CONTINUOUS
 10
77.515200
 20
147.588000
  0
VERTEX
  8
0
 62
    31
  6
CONTINUOUS
 10
77.515200
 20
142.716000
  0
VERTEX
  8
0
 62
    31
  6
CONTINUOUS
 10
59.287200
 20
142.716000
  0
VERTEX
  8
0
 62
    31
  6
CONTINUOUS
 10
59.287200
 20
143.505600
  0
VERTEX
  8
0
 62
    31
  6
CONTINUOUS
 10
59.304000
 20
143.505600
  0
VERTEX
  8
0
 62
    31
  6
CONTINUOUS
 10
59.304000
 20
145.521600
  0
VERTEX
  8
0
 62
    31
  6
CONTINUOUS
 10
51.542400
 20
145.521600
  0
VERTEX
  8
0
 62
    31
  6
CONTINUOUS
 10
51.542400
 20
148.545600
  0
VERTEX
  8
0
 62
    31
  6
CONTINUOUS
 10
36.909600
 20
148.545600
  0
VERTEX
  8
0
 62
    31
  6
CONTINUOUS
 10
36.909600
 20
146.529600
  0
VERTEX
  8
0
 62
    31
  6
CONTINUOUS
 10
49.526400
 20
146.529600
  0
VERTEX
  8
0
 62
    31
  6
CONTINUOUS
 10
49.526400
 20
143.505600
  0
VERTEX
  8
0
 62
    31
  6
CONTINUOUS
 10
57.271200
 20
143.505600
  0
VERTEX
  8
0
 62
    31
  6
CONTINUOUS
 10
57.271200
 20
140.700000
  0
VERTEX
  8
0
 62
    31
  6
CONTINUOUS
 10
79.531200
 20
140.700000
  0
VERTEX
  8
0
 62
    31
  6
CONTINUOUS
 10
79.531200
 20
144.732000
  0
VERTEX
  8
0
 62
    31
  6
CONTINUOUS
 10
89.308800
 20
144.732000
  0
VERTEX
  8
0
 62
    31
  6
CONTINUOUS
 10
89.308800
 20
145.572000
  0
VERTEX
  8
0
 62
    31
  6
CONTINUOUS
 10
126.033600
 20
145.572000
  0
VERTEX
  8
0
 62
    31
  6
CONTINUOUS
 10
126.033600
 20
149.452800
  0
VERTEX
  8
0
 62
    31
  6
CONTINUOUS
 10
153.064800
 20
149.452800
  0
VERTEX
  8
0
 62
    31
  6
CONTINUOUS
 10
153.064800
 20
151.468800
  0
SEQEND
  8
0
  0
HATCH
  5
  2780
100
AcDbEntity
  8
0
 62
    31
100
AcDbHatch
 10
0.000000
 20
0.000000
 30
0.000000
210
0.000000
220
0.000000
230
0.016800
  2
SOLID
 70
     1
 71
     0
 91
     1
 92
     1
 93
    14
 72
     1
 10
151.048800
 20
149.452800
 11
151.048800
 21
144.513600
 72
     1
 10
151.048800
 20
144.513600
 11
126.033600
 21
144.513600
 72
     1
 10
126.033600
 20
144.513600
 11
126.033600
 21
145.572000
 72
     1
 10
126.033600
 20
145.572000
 11
124.017600
 21
145.572000
 72
     1
 10
124.017600
 20
145.572000
 11
124.017600
 21
142.514400
 72
     1
 10
124.017600
 20
142.514400
 11
153.064800
 21
142.514400
 72
     1
 10
153.064800
 20
142.514400
 11
153.064800
 21
144.530400
 72
     1
 10
153.064800
 20
144.530400
 11
153.048000
 21
144.530400
 72
     1
 10
153.048000
 20
144.530400
 11
153.048000
 21
145.488000
 72
     1
 10
153.048000
 20
145.488000
 11
165.211200
 21
145.488000
 72
     1
 10
165.211200
 20
145.488000
 11
165.211200
 21
147.504000
 72
     1
 10
165.211200
 20
147.504000
 11
153.048000
 21
147.504000
 72
     1
 10
153.048000
 20
147.504000
 11
153.048000
 21
149.452800
 72
     1
 10
153.048000
 20
149.452800
 11
151.048800
 21
149.452800
 97
     0
 75
     0
 76
     1
 98
     1
 10
0.000000
 20
0.000000
  0
POLYLINE
  8
0
 62
    31
  6
CONTINUOUS
 66
     1
 40
0.000000
 41
0.000000
 70
     1
  0
VERTEX
  8
0
 62
    31
  6
CONTINUOUS
 10
151.048800
 20
149.452800
  0
VERTEX
  8
0
 62
    31
  6
CONTINUOUS
 10
151.048800
 20
144.513600
  0
VERTEX
  8
0
 62
    31
  6
CONTINUOUS
 10
126.033600
 20
144.513600
  0
VERTEX
  8
0
 62
    31
  6
CONTINUOUS
 10
126.033600
 20
145.572000
  0
VERTEX
  8
0
 62
    31
  6
CONTINUOUS
 10
124.017600
 20
145.572000
  0
VERTEX
  8
0
 62
    31
  6
CONTINUOUS
 10
124.017600
 20
142.514400
  0
VERTEX
  8
0
 62
    31
  6
CONTINUOUS
 10
153.064800
 20
142.514400
  0
VERTEX
  8
0
 62
    31
  6
CONTINUOUS
 10
153.064800
 20
144.530400
  0
VERTEX
  8
0
 62
    31
  6
CONTINUOUS
 10
153.048000
 20
144.530400
  0
VERTEX
  8
0
 62
    31
  6
CONTINUOUS
 10
153.048000
 20
145.488000
  0
VERTEX
  8
0
 62
    31
  6
CONTINUOUS
 10
165.211200
 20
145.488000
  0
VERTEX
  8
0
 62
    31
  6
CONTINUOUS
 10
165.211200
 20
147.504000
  0
VERTEX
  8
0
 62
    31
  6
CONTINUOUS
 10
153.048000
 20
147.504000
  0
VERTEX
  8
0
 62
    31
  6
CONTINUOUS
 10
153.048000
 20
149.452800
  0
SEQEND
  8
0
  0
HATCH
  5
  2781
100
AcDbEntity
  8
0
 62
    31
100
AcDbHatch
 10
0.000000
 20
0.000000
 30
0.000000
210
0.000000
220
0.000000
230
0.016800
  2
SOLID
 70
     1
 71
     0
 91
     1
 92
     1
 93
     8
 72
     1
 10
105.134400
 20
145.572000
 11
105.134400
 21
95.037600
 72
     1
 10
105.134400
 20
95.037600
 11
102.916800
 21
95.037600
 72
     1
 10
102.916800
 20
95.037600
 11
102.916800
 21
93.021600
 72
     1
 10
102.916800
 20
93.021600
 11
109.485600
 21
93.021600
 72
     1
 10
109.485600
 20
93.021600
 11
109.485600
 21
95.037600
 72
     1
 10
109.485600
 20
95.037600
 11
107.184000
 21
95.037600
 72
     1
 10
107.184000
 20
95.037600
 11
107.184000
 21
145.572000
 72
     1
 10
107.184000
 20
145.572000
 11
105.134400
 21
145.572000
 97
     0
 75
     0
 76
     1
 98
     1
 10
0.000000
 20
0.000000
  0
POLYLINE
  8
0
 62
    31
  6
CONTINUOUS
 66
     1
 40
0.000000
 41
0.000000
 70
     1
  0
VERTEX
  8
0
 62
    31
  6
CONTINUOUS
 10
105.134400
 20
145.572000
  0
VERTEX
  8
0
 62
    31
  6
CONTINUOUS
 10
105.134400
 20
95.037600
  0
VERTEX
  8
0
 62
    31
  6
CONTINUOUS
 10
102.916800
 20
95.037600
  0
VERTEX
  8
0
 62
    31
  6
CONTINUOUS
 10
102.916800
 20
93.021600
  0
VERTEX
  8
0
 62
    31
  6
CONTINUOUS
 10
109.485600
 20
93.021600
  0
VERTEX
  8
0
 62
    31
  6
CONTINUOUS
 10
109.485600
 20
95.037600
  0
VERTEX
  8
0
 62
    31
  6
CONTINUOUS
 10
107.184000
 20
95.037600
  0
VERTEX
  8
0
 62
    31
  6
CONTINUOUS
 10
107.184000
 20
145.572000
  0
SEQEND
  8
0
  0
POLYLINE
  8
0
  6
CONTINUOUS
 66
     1
 40
0.000000
 41
0.000000
 70
     1
  0
VERTEX
  8
0
  6
CONTINUOUS
 10
153.048000
 20
151.468800
  0
VERTEX
  8
0
  6
CONTINUOUS
 10
124.017600
 20
151.468800
  0
VERTEX
  8
0
  6
CONTINUOUS
 10
124.017600
 20
147.588000
  0
VERTEX
  8
0
  6
CONTINUOUS
 10
77.515200
 20
147.588000
  0
VERTEX
  8
0
  6
CONTINUOUS
 10
77.515200
 20
142.716000
  0
VERTEX
  8
0
  6
CONTINUOUS
 10
59.270400
 20
142.716000
  0
VERTEX
  8
0
  6
CONTINUOUS
 10
59.287200
 20
145.521600
  0
VERTEX
  8
0
  6
CONTINUOUS
 10
51.525600
 20
145.521600
  0
VERTEX
  8
0
  6
CONTINUOUS
 10
51.525600
 20
148.545600
  0
VERTEX
  8
0
  6
CONTINUOUS
 10
36.909600
 20
148.545600
  0
VERTEX
  8
0
  6
CONTINUOUS
 10
36.909600
 20
146.546400
  0
VERTEX
  8
0
  6
CONTINUOUS
 10
49.526400
 20
146.546400
  0
VERTEX
  8
0
  6
CONTINUOUS
 10
49.526400
 20
143.522400
  0
VERTEX
  8
0
  6
CONTINUOUS
 10
57.271200
 20
143.522400
  0
VERTEX
  8
0
  6
CONTINUOUS
 10
57.271200
 20
140.716800
  0
VERTEX
  8
0
  6
CONTINUOUS
 10
79.514400
 20
140.716800
  0
VERTEX
  8
0
  6
CONTINUOUS
 10
79.514400
 20
144.748800
  0
VERTEX
  8
0
  6
CONTINUOUS
 10
89.292000
 20
144.748800
  0
VERTEX
  8
0
  6
CONTINUOUS
 10
89.292000
 20
145.588800
  0
VERTEX
  8
0
  6
CONTINUOUS
 10
105.134400
 20
145.588800
  0
VERTEX
  8
0
  6
CONTINUOUS
 10
105.134400
 20
95.037600
  0
VERTEX
  8
0
  6
CONTINUOUS
 10
102.916800
 20
95.037600
  0
VERTEX
  8
0
  6
CONTINUOUS
 10
102.916800
 20
93.021600
  0
VERTEX
  8
0
  6
CONTINUOUS
 10
109.468800
 20
93.021600
  0
VERTEX
  8
0
  6
CONTINUOUS
 10
109.468800
 20
95.037600
  0
VERTEX
  8
0
  6
CONTINUOUS
 10
107.167200
 20
95.037600
  0
VERTEX
  8
0
  6
CONTINUOUS
 10
107.167200
 20
145.588800
  0
VERTEX
  8
0
  6
CONTINUOUS
 10
124.017600
 20
145.588800
  0
VERTEX
  8
0
  6
CONTINUOUS
 10
124.017600
 20
142.531200
  0
VERTEX
  8
0
  6
CONTINUOUS
 10
153.048000
 20
142.531200
  0
VERTEX
  8
0
  6
CONTINUOUS
 10
153.031200
 20
145.504800
  0
VERTEX
  8
0
  6
CONTINUOUS
 10
165.194400
 20
145.504800
  0
VERTEX
  8
0
  6
CONTINUOUS
 10
165.194400
 20
147.504000
  0
VERTEX
  8
0
  6
CONTINUOUS
 10
153.031200
 20
147.504000
  0
SEQEND
  8
0
  0
POLYLINE
  8
0
  6
CONTINUOUS
 66
     1
 40
0.000000
 41
0.000000
 70
     1
  0
VERTEX
  8
0
  6
CONTINUOUS
 10
126.016800
 20
149.469600
  0
VERTEX
  8
0
  6
CONTINUOUS
 10
126.016800
 20
144.513600
  0
VERTEX
  8
0
  6
CONTINUOUS
 10
151.048800
 20
144.513600
  0
VERTEX
  8
0
  6
CONTINUOUS
 10
151.048800
 20
149.469600
  0
SEQEND
  8
0
  0
HATCH
  5
  2782
100
AcDbEntity
  8
0
 62
    31
100
AcDbHatch
 10
0.000000
 20
0.000000
 30
0.000000
210
0.000000
220
0.000000
230
0.016800
  2
SOLID
 70
     1
 71
     0
 91
     1
 92
     1
 93
    24
 72
     1
 10
87.746400
 20
78.388800
 11
87.746400
 21
76.372800
 72
     1
 10
87.746400
 20
76.372800
 11
88.855200
 21
76.372800
 72
     1
 10
88.855200
 20
76.372800
 11
88.855200
 21
35.296800
 72
     1
 10
88.855200
 20
35.296800
 11
36.842400
 21
35.296800
 72
     1
 10
36.842400
 20
35.296800
 11
36.842400
 21
33.297600
 72
     1
 10
36.842400
 20
33.297600
 11
90.871200
 21
33.297600
 72
     1
 10
90.871200
 20
33.297600
 11
90.871200
 21
45.040800
 72
     1
 10
90.871200
 20
45.040800
 11
107.688000
 21
45.040800
 72
     1
 10
107.688000
 20
45.040800
 11
107.688000
 21
75.516000
 72
     1
 10
107.688000
 20
75.516000
 11
165.211200
 21
75.516000
 72
     1
 10
165.211200
 20
75.516000
 11
165.211200
 21
77.683200
 72
     1
 10
165.211200
 20
77.683200
 11
155.114400
 21
77.683200
 72
     1
 10
155.114400
 20
77.683200
 11
155.114400
 21
78.372000
 72
     1
 10
155.114400
 20
78.372000
 11
152.275200
 21
78.372000
 72
     1
 10
152.275200
 20
78.372000
 11
152.275200
 21
77.683200
 72
     1
 10
152.275200
 20
77.683200
 11
104.378400
 21
77.683200
 72
     1
 10
104.378400
 20
77.683200
 11
104.378400
 21
75.566400
 72
     1
 10
104.378400
 20
75.566400
 11
105.672000
 21
75.566400
 72
     1
 10
105.672000
 20
75.566400
 11
105.672000
 21
47.056800
 72
     1
 10
105.672000
 20
47.056800
 11
90.871200
 21
47.056800
 72
     1
 10
90.871200
 20
47.056800
 11
90.871200
 21
76.372800
 72
     1
 10
90.871200
 20
76.372800
 11
91.644000
 21
76.372800
 72
     1
 10
91.644000
 20
76.372800
 11
91.644000
 21
78.388800
 72
     1
 10
91.644000
 20
78.388800
 11
87.746400
 21
78.388800
 97
     0
 75
     0
 76
     1
 98
     1
 10
0.000000
 20
0.000000
  0
POLYLINE
  8
0
 62
    31
  6
CONTINUOUS
 66
     1
 40
0.000000
 41
0.000000
 70
     1
  0
VERTEX
  8
0
 62
    31
  6
CONTINUOUS
 10
87.746400
 20
78.388800
  0
VERTEX
  8
0
 62
    31
  6
CONTINUOUS
 10
87.746400
 20
76.372800
  0
VERTEX
  8
0
 62
    31
  6
CONTINUOUS
 10
88.855200
 20
76.372800
  0
VERTEX
  8
0
 62
    31
  6
CONTINUOUS
 10
88.855200
 20
35.296800
  0
VERTEX
  8
0
 62
    31
  6
CONTINUOUS
 10
36.842400
 20
35.296800
  0
VERTEX
  8
0
 62
    31
  6
CONTINUOUS
 10
36.842400
 20
33.297600
  0
VERTEX
  8
0
 62
    31
  6
CONTINUOUS
 10
90.871200
 20
33.297600
  0
VERTEX
  8
0
 62
    31
  6
CONTINUOUS
 10
90.871200
 20
45.040800
  0
VERTEX
  8
0
 62
    31
  6
CONTINUOUS
 10
107.688000
 20
45.040800
  0
VERTEX
  8
0
 62
    31
  6
CONTINUOUS
 10
107.688000
 20
75.516000
  0
VERTEX
  8
0
 62
    31
  6
CONTINUOUS
 10
165.211200
 20
75.516000
  0
VERTEX
  8
0
 62
    31
  6
CONTINUOUS
 10
165.211200
 20
77.683200
  0
VERTEX
  8
0
 62
    31
  6
CONTINUOUS
 10
155.114400
 20
77.683200
  0
VERTEX
  8
0
 62
    31
  6
CONTINUOUS
 10
155.114400
 20
78.372000
  0
VERTEX
  8
0
 62
    31
  6
CONTINUOUS
 10
152.275200
 20
78.372000
  0
VERTEX
  8
0
 62
    31
  6
CONTINUOUS
 10
152.275200
 20
77.683200
  0
VERTEX
  8
0
 62
    31
  6
CONTINUOUS
 10
104.378400
 20
77.683200
  0
VERTEX
  8
0
 62
    31
  6
CONTINUOUS
 10
104.378400
 20
75.566400
  0
VERTEX
  8
0
 62
    31
  6
CONTINUOUS
 10
105.672000
 20
75.566400
  0
VERTEX
  8
0
 62
    31
  6
CONTINUOUS
 10
105.672000
 20
47.056800
  0
VERTEX
  8
0
 62
    31
  6
CONTINUOUS
 10
90.871200
 20
47.056800
  0
VERTEX
  8
0
 62
    31
  6
CONTINUOUS
 10
90.871200
 20
76.372800
  0
VERTEX
  8
0
 62
    31
  6
CONTINUOUS
 10
91.644000
 20
76.372800
  0
VERTEX
  8
0
 62
    31
  6
CONTINUOUS
 10
91.644000
 20
78.388800
  0
SEQEND
  8
0
  0
HATCH
  5
  2783
100
AcDbEntity
  8
0
 62
    31
100
AcDbHatch
 10
0.000000
 20
0.000000
 30
0.000000
210
0.000000
220
0.000000
230
0.016800
  2
SOLID
 70
     1
 71
     0
 91
     1
 92
     1
 93
     8
 72
     1
 10
71.248800
 20
89.644800
 11
71.248800
 21
78.388800
 72
     1
 10
71.248800
 20
78.388800
 11
36.926400
 21
78.388800
 72
     1
 10
36.926400
 20
78.388800
 11
36.926400
 21
76.372800
 72
     1
 10
36.926400
 20
76.372800
 11
74.676000
 21
76.372800
 72
     1
 10
74.676000
 20
76.372800
 11
74.676000
 21
78.388800
 72
     1
 10
74.676000
 20
78.388800
 11
73.264800
 21
78.388800
 72
     1
 10
73.264800
 20
78.388800
 11
73.264800
 21
89.644800
 72
     1
 10
73.264800
 20
89.644800
 11
71.248800
 21
89.644800
 97
     0
 75
     0
 76
     1
 98
     1
 10
0.000000
 20
0.000000
  0
POLYLINE
  8
0
 62
    31
  6
CONTINUOUS
 66
     1
 40
0.000000
 41
0.000000
 70
     1
  0
VERTEX
  8
0
 62
    31
  6
CONTINUOUS
 10
71.248800
 20
89.644800
  0
VERTEX
  8
0
 62
    31
  6
CONTINUOUS
 10
71.248800
 20
78.388800
  0
VERTEX
  8
0
 62
    31
  6
CONTINUOUS
 10
36.926400
 20
78.388800
  0
VERTEX
  8
0
 62
    31
  6
CONTINUOUS
 10
36.926400
 20
76.372800
  0
VERTEX
  8
0
 62
    31
  6
CONTINUOUS
 10
74.676000
 20
76.372800
  0
VERTEX
  8
0
 62
    31
  6
CONTINUOUS
 10
74.676000
 20
78.388800
  0
VERTEX
  8
0
 62
    31
  6
CONTINUOUS
 10
73.264800
 20
78.388800
  0
VERTEX
  8
0
 62
    31
  6
CONTINUOUS
 10
73.264800
 20
89.644800
  0
SEQEND
  8
0
  0
POLYLINE
  8
0
  6
CONTINUOUS
 66
     1
 40
0.000000
 41
0.000000
 70
     1
  0
VERTEX
  8
0
  6
CONTINUOUS
 10
73.248000
 20
78.388800
  0
VERTEX
  8
0
  6
CONTINUOUS
 10
73.248000
 20
89.644800
  0
VERTEX
  8
0
  6
CONTINUOUS
 10
71.248800
 20
89.644800
  0
VERTEX
  8
0
  6
CONTINUOUS
 10
71.248800
 20
78.388800
  0
VERTEX
  8
0
  6
CONTINUOUS
 10
36.926400
 20
78.388800
  0
VERTEX
  8
0
  6
CONTINUOUS
 10
36.926400
 20
76.389600
  0
VERTEX
  8
0
  6
CONTINUOUS
 10
74.659200
 20
76.389600
  0
VERTEX
  8
0
  6
CONTINUOUS
 10
74.659200
 20
78.388800
  0
SEQEND
  8
0
  0
POLYLINE
  8
0
  6
CONTINUOUS
 66
     1
 40
0.000000
 41
0.000000
 70
     1
  0
VERTEX
  8
0
  6
CONTINUOUS
 10
91.627200
 20
76.389600
  0
VERTEX
  8
0
  6
CONTINUOUS
 10
91.627200
 20
78.388800
  0
VERTEX
  8
0
  6
CONTINUOUS
 10
87.746400
 20
78.388800
  0
VERTEX
  8
0
  6
CONTINUOUS
 10
87.746400
 20
76.389600
  0
VERTEX
  8
0
  6
CONTINUOUS
 10
88.855200
 20
76.389600
  0
VERTEX
  8
0
  6
CONTINUOUS
 10
88.855200
 20
35.296800
  0
VERTEX
  8
0
  6
CONTINUOUS
 10
36.842400
 20
35.296800
  0
VERTEX
  8
0
  6
CONTINUOUS
 10
36.842400
 20
33.297600
  0
VERTEX
  8
0
  6
CONTINUOUS
 10
90.854400
 20
33.297600
  0
VERTEX
  8
0
  6
CONTINUOUS
 10
90.854400
 20
35.296800
  0
VERTEX
  8
0
  6
CONTINUOUS
 10
90.854400
 20
45.057600
  0
VERTEX
  8
0
  6
CONTINUOUS
 10
107.671200
 20
45.057600
  0
VERTEX
  8
0
  6
CONTINUOUS
 10
107.671200
 20
47.056800
  0
VERTEX
  8
0
  6
CONTINUOUS
 10
107.671200
 20
75.532800
  0
VERTEX
  8
0
  6
CONTINUOUS
 10
165.194400
 20
75.532800
  0
VERTEX
  8
0
  6
CONTINUOUS
 10
165.194400
 20
77.683200
  0
VERTEX
  8
0
  6
CONTINUOUS
 10
155.097600
 20
77.683200
  0
VERTEX
  8
0
  6
CONTINUOUS
 10
155.097600
 20
78.372000
  0
VERTEX
  8
0
  6
CONTINUOUS
 10
152.275200
 20
78.372000
  0
VERTEX
  8
0
  6
CONTINUOUS
 10
152.275200
 20
77.683200
  0
VERTEX
  8
0
  6
CONTINUOUS
 10
104.378400
 20
77.683200
  0
VERTEX
  8
0
  6
CONTINUOUS
 10
104.378400
 20
75.583200
  0
VERTEX
  8
0
  6
CONTINUOUS
 10
105.672000
 20
75.583200
  0
VERTEX
  8
0
  6
CONTINUOUS
 10
105.672000
 20
47.056800
  0
VERTEX
  8
0
  6
CONTINUOUS
 10
90.854400
 20
47.056800
  0
VERTEX
  8
0
  6
CONTINUOUS
 10
90.854400
 20
76.389600
  0
SEQEND
  8
0
  0
HATCH
  5
  2784
100
AcDbEntity
  8
0
 62
    31
100
AcDbHatch
 10
0.000000
 20
0.000000
 30
0.000000
210
0.000000
220
0.000000
230
0.016800
  2
SOLID
 70
     1
 71
     0
 91
     1
 92
     1
 93
    15
 72
     1
 10
91.425600
 20
95.104800
 11
90.938400
 21
95.104800
 72
     1
 10
90.938400
 20
95.104800
 11
90.938400
 21
102.429600
 72
     1
 10
90.938400
 20
102.429600
 11
90.938400
 21
104.428800
 72
     1
 10
90.938400
 20
104.428800
 11
36.926400
 21
104.428800
 72
     1
 10
36.926400
 20
104.428800
 11
36.926400
 21
102.429600
 72
     1
 10
36.926400
 20
102.429600
 11
71.232000
 21
102.429600
 72
     1
 10
71.232000
 20
102.429600
 11
71.232000
 21
101.287200
 72
     1
 10
71.232000
 20
101.287200
 11
73.231200
 21
101.287200
 72
     1
 10
73.231200
 20
101.287200
 11
73.231200
 21
102.429600
 72
     1
 10
73.231200
 20
102.429600
 11
88.939200
 21
102.429600
 72
     1
 10
88.939200
 20
102.429600
 11
88.939200
 21
92.988000
 72
     1
 10
88.939200
 20
92.988000
 11
90.938400
 21
92.988000
 72
     1
 10
90.938400
 20
92.988000
 11
90.938400
 21
93.004800
 72
     1
 10
90.938400
 20
93.004800
 11
91.425600
 21
93.004800
 72
     1
 10
91.425600
 20
93.004800
 11
91.425600
 21
95.104800
 97
     0
 75
     0
 76
     1
 98
     1
 10
0.000000
 20
0.000000
  0
POLYLINE
  8
0
  6
CONTINUOUS
 66
     1
 40
0.000000
 41
0.000000
 70
     1
  0
VERTEX
  8
0
  6
CONTINUOUS
 10
91.425600
 20
95.104800
  0
VERTEX
  8
0
  6
CONTINUOUS
 10
90.938400
 20
95.104800
  0
VERTEX
  8
0
  6
CONTINUOUS
 10
90.938400
 20
102.429600
  0
VERTEX
  8
0
  6
CONTINUOUS
 10
90.938400
 20
104.428800
  0
VERTEX
  8
0
  6
CONTINUOUS
 10
36.926400
 20
104.428800
  0
VERTEX
  8
0
  6
CONTINUOUS
 10
36.926400
 20
102.429600
  0
VERTEX
  8
0
  6
CONTINUOUS
 10
71.232000
 20
102.429600
  0
VERTEX
  8
0
  6
CONTINUOUS
 10
71.232000
 20
101.287200
  0
VERTEX
  8
0
  6
CONTINUOUS
 10
73.231200
 20
101.287200
  0
VERTEX
  8
0
  6
CONTINUOUS
 10
73.231200
 20
102.429600
  0
VERTEX
  8
0
  6
CONTINUOUS
 10
88.939200
 20
102.429600
  0
VERTEX
  8
0
  6
CONTINUOUS
 10
88.939200
 20
92.988000
  0
VERTEX
  8
0
  6
CONTINUOUS
 10
90.938400
 20
92.988000
  0
VERTEX
  8
0
  6
CONTINUOUS
 10
90.938400
 20
93.004800
  0
VERTEX
  8
0
  6
CONTINUOUS
 10
91.425600
 20
93.004800
  0
SEQEND
  8
0
  0
MTEXT
  5
  2785
100
AcDbEntity
100
AcDbMText
 71
     1
 72
     5
  8
0
 10
137.541600
 20
116.877600
 40
2.861026
  1
\fTimes New Roman|b0|i0|c0|p18;Living room
 41
0.000000
  0
MTEXT
  5
  2786
100
AcDbEntity
100
AcDbMText
 71
     1
 72
     5
  8
0
 10
59.152800
 20
117.096000
 40
2.861026
  1
\fTimes New Roman|b0|i0|c0|p18;Kitchen
 41
0.000000
  0
MTEXT
  5
  2787
100
AcDbEntity
100
AcDbMText
 71
     1
 72
     5
  8
0
 10
48.300000
 20
85.226400
 40
2.861026
  1
\fTimes New Roman|b0|i0|c0|p18;Bathroom
 41
0.000000
  0
MTEXT
  5
  2788
100
AcDbEntity
100
AcDbMText
 71
     1
 72
     5
  8
0
 10
49.576800
 20
50.164800
 40
2.861026
  1
\fTimes New Roman|b0|i0|c0|p18;Study
 41
0.000000
  0
MTEXT
  5
  2789
100
AcDbEntity
100
AcDbMText
 71
     1
 72
     5
  8
0
 10
93.777600
 20
63.117600
 40
2.861026
  1
\fTimes New Roman|b0|i0|c0|p18;Toilet
 41
0.000000
  0
MTEXT
  5
  2790
100
AcDbEntity
100
AcDbMText
 71
     1
 72
     5
  8
0
 10
128.402400
 20
82.538400
 40
2.861026
  1
\fTimes New Roman|b0|i0|c0|p18;Hall
 41
0.000000
  0
HATCH
  5
  2791
100
AcDbEntity
  8
0
 62
     7
100
AcDbHatch
 10
0.000000
 20
0.000000
 30
0.000000
210
0.000000
220
0.000000
230
0.016800
  2
SOLID
 70
     1
 71
     0
 91
     1
 92
     1
 93
     4
 72
     1
 10
29.601600
 20
9.021600
 11
42.940800
 21
9.021600
 72
     1
 10
42.940800
 20
9.021600
 11
42.940800
 21
8.736000
 72
     1
 10
42.940800
 20
8.736000
 11
29.601600
 21
8.736000
 72
     1
 10
29.601600
 20
8.736000
 11
29.601600
 21
9.021600
 97
     0
 75
     0
 76
     1
 98
     1
 10
0.000000
 20
0.000000
  0
POLYLINE
  8
0
  6
CONTINUOUS
 66
     1
 40
0.000000
 41
0.000000
 70
     1
  0
VERTEX
  8
0
  6
CONTINUOUS
 10
29.601600
 20
9.021600
  0
VERTEX
  8
0
  6
CONTINUOUS
 10
42.940800
 20
9.021600
  0
VERTEX
  8
0
  6
CONTINUOUS
 10
42.940800
 20
8.736000
  0
VERTEX
  8
0
  6
CONTINUOUS
 10
29.601600
 20
8.736000
  0
SEQEND
  8
0
  0
HATCH
  5
  2792
100
AcDbEntity
  8
0
100
AcDbHatch
 10
0.000000
 20
0.000000
 30
0.000000
210
0.000000
220
0.000000
230
0.016800
  2
SOLID
 70
     1
 71
     0
 91
     1
 92
     1
 93
     4
 72
     1
 10
42.940800
 20
9.021600
 11
56.263200
 21
9.021600
 72
     1
 10
56.263200
 20
9.021600
 11
56.263200
 21
8.736000
 72
     1
 10
56.263200
 20
8.736000
 11
42.940800
 21
8.736000
 72
     1
 10
42.940800
 20
8.736000
 11
42.940800
 21
9.021600
 97
     0
 75
     0
 76
     1
 98
     1
 10
0.000000
 20
0.000000
  0
POLYLINE
  8
0
  6
CONTINUOUS
 66
     1
 40
0.000000
 41
0.000000
 70
     1
  0
VERTEX
  8
0
  6
CONTINUOUS
 10
42.940800
 20
9.021600
  0
VERTEX
  8
0
  6
CONTINUOUS
 10
56.263200
 20
9.021600
  0
VERTEX
  8
0
  6
CONTINUOUS
 10
56.263200
 20
8.736000
  0
VERTEX
  8
0
  6
CONTINUOUS
 10
42.940800
 20
8.736000
  0
SEQEND
  8
0
  0
HATCH
  5
  2793
100
AcDbEntity
  8
0
 62
     7
100
AcDbHatch
 10
0.000000
 20
0.000000
 30
0.000000
210
0.000000
220
0.000000
230
0.016800
  2
SOLID
 70
     1
 71
     0
 91
     1
 92
     1
 93
     4
 72
     1
 10
56.263200
 20
9.021600
 11
69.602400
 21
9.021600
 72
     1
 10
69.602400
 20
9.021600
 11
69.602400
 21
8.736000
 72
     1
 10
69.602400
 20
8.736000
 11
56.263200
 21
8.736000
 72
     1
 10
56.263200
 20
8.736000
 11
56.263200
 21
9.021600
 97
     0
 75
     0
 76
     1
 98
     1
 10
0.000000
 20
0.000000
  0
POLYLINE
  8
0
  6
CONTINUOUS
 66
     1
 40
0.000000
 41
0.000000
 70
     1
  0
VERTEX
  8
0
  6
CONTINUOUS
 10
56.263200
 20
9.021600
  0
VERTEX
  8
0
  6
CONTINUOUS
 10
69.602400
 20
9.021600
  0
VERTEX
  8
0
  6
CONTINUOUS
 10
69.602400
 20
8.736000
  0
VERTEX
  8
0
  6
CONTINUOUS
 10
56.263200
 20
8.736000
  0
SEQEND
  8
0
  0
HATCH
  5
  2794
100
AcDbEntity
  8
0
100
AcDbHatch
 10
0.000000
 20
0.000000
 30
0.000000
210
0.000000
220
0.000000
230
0.016800
  2
SOLID
 70
     1
 71
     0
 91
     1
 92
     1
 93
     4
 72
     1
 10
69.602400
 20
9.021600
 11
82.924800
 21
9.021600
 72
     1
 10
82.924800
 20
9.021600
 11
82.924800
 21
8.736000
 72
     1
 10
82.924800
 20
8.736000
 11
69.602400
 21
8.736000
 72
     1
 10
69.602400
 20
8.736000
 11
69.602400
 21
9.021600
 97
     0
 75
     0
 76
     1
 98
     1
 10
0.000000
 20
0.000000
  0
POLYLINE
  8
0
  6
CONTINUOUS
 66
     1
 40
0.000000
 41
0.000000
 70
     1
  0
VERTEX
  8
0
  6
CONTINUOUS
 10
69.602400
 20
9.021600
  0
VERTEX
  8
0
  6
CONTINUOUS
 10
82.924800
 20
9.021600
  0
VERTEX
  8
0
  6
CONTINUOUS
 10
82.924800
 20
8.736000
  0
VERTEX
  8
0
  6
CONTINUOUS
 10
69.602400
 20
8.736000
  0
SEQEND
  8
0
  0
HATCH
  5
  2795
100
AcDbEntity
  8
0
 62
     7
100
AcDbHatch
 10
0.000000
 20
0.000000
 30
0.000000
210
0.000000
220
0.000000
230
0.016800
  2
SOLID
 70
     1
 71
     0
 91
     1
 92
     1
 93
     4
 72
     1
 10
82.924800
 20
9.021600
 11
96.264000
 21
9.021600
 72
     1
 10
96.264000
 20
9.021600
 11
96.264000
 21
8.736000
 72
     1
 10
96.264000
 20
8.736000
 11
82.924800
 21
8.736000
 72
     1
 10
82.924800
 20
8.736000
 11
82.924800
 21
9.021600
 97
     0
 75
     0
 76
     1
 98
     1
 10
0.000000
 20
0.000000
  0
POLYLINE
  8
0
  6
CONTINUOUS
 66
     1
 40
0.000000
 41
0.000000
 70
     1
  0
VERTEX
  8
0
  6
CONTINUOUS
 10
82.924800
 20
9.021600
  0
VERTEX
  8
0
  6
CONTINUOUS
 10
96.264000
 20
9.021600
  0
VERTEX
  8
0
  6
CONTINUOUS
 10
96.264000
 20
8.736000
  0
VERTEX
  8
0
  6
CONTINUOUS
 10
82.924800
 20
8.736000
  0
SEQEND
  8
0
  0
HATCH
  5
  2796
100
AcDbEntity
  8
0
100
AcDbHatch
 10
0.000000
 20
0.000000
 30
0.000000
210
0.000000
220
0.000000
230
0.016800
  2
SOLID
 70
     1
 71
     0
 91
     1
 92
     1
 93
     4
 72
     1
 10
96.264000
 20
9.021600
 11
109.603200
 21
9.021600
 72
     1
 10
109.603200
 20
9.021600
 11
109.603200
 21
8.736000
 72
     1
 10
109.603200
 20
8.736000
 11
96.264000
 21
8.736000
 72
     1
 10
96.264000
 20
8.736000
 11
96.264000
 21
9.021600
 97
     0
 75
     0
 76
     1
 98
     1
 10
0.000000
 20
0.000000
  0
POLYLINE
  8
0
  6
CONTINUOUS
 66
     1
 40
0.000000
 41
0.000000
 70
     1
  0
VERTEX
  8
0
  6
CONTINUOUS
 10
96.264000
 20
9.021600
  0
VERTEX
  8
0
  6
CONTINUOUS
 10
109.603200
 20
9.021600
  0
VERTEX
  8
0
  6
CONTINUOUS
 10
109.603200
 20
8.736000
  0
VERTEX
  8
0
  6
CONTINUOUS
 10
96.264000
 20
8.736000
  0
SEQEND
  8
0
  0
HATCH
  5
  2797
100
AcDbEntity
  8
0
 62
     7
100
AcDbHatch
 10
0.000000
 20
0.000000
 30
0.000000
210
0.000000
220
0.000000
230
0.016800
  2
SOLID
 70
     1
 71
     0
 91
     1
 92
     1
 93
     4
 72
     1
 10
109.603200
 20
9.021600
 11
122.925600
 21
9.021600
 72
     1
 10
122.925600
 20
9.021600
 11
122.925600
 21
8.736000
 72
     1
 10
122.925600
 20
8.736000
 11
109.603200
 21
8.736000
 72
     1
 10
109.603200
 20
8.736000
 11
109.603200
 21
9.021600
 97
     0
 75
     0
 76
     1
 98
     1
 10
0.000000
 20
0.000000
  0
POLYLINE
  8
0
  6
CONTINUOUS
 66
     1
 40
0.000000
 41
0.000000
 70
     1
  0
VERTEX
  8
0
  6
CONTINUOUS
 10
109.603200
 20
9.021600
  0
VERTEX
  8
0
  6
CONTINUOUS
 10
122.925600
 20
9.021600
  0
VERTEX
  8
0
  6
CONTINUOUS
 10
122.925600
 20
8.736000
  0
VERTEX
  8
0
  6
CONTINUOUS
 10
109.603200
 20
8.736000
  0
SEQEND
  8
0
  0
HATCH
  5
  2798
100
AcDbEntity
  8
0
100
AcDbHatch
 10
0.000000
 20
0.000000
 30
0.000000
210
0.000000
220
0.000000
230
0.016800
  2
SOLID
 70
     1
 71
     0
 91
     1
 92
     1
 93
     4
 72
     1
 10
122.925600
 20
9.021600
 11
136.264800
 21
9.021600
 72
     1
 10
136.264800
 20
9.021600
 11
136.264800
 21
8.736000
 72
     1
 10
136.264800
 20
8.736000
 11
122.925600
 21
8.736000
 72
     1
 10
122.925600
 20
8.736000
 11
122.925600
 21
9.021600
 97
     0
 75
     0
 76
     1
 98
     1
 10
0.000000
 20
0.000000
  0
POLYLINE
  8
0
  6
CONTINUOUS
 66
     1
 40
0.000000
 41
0.000000
 70
     1
  0
VERTEX
  8
0
  6
CONTINUOUS
 10
122.925600
 20
9.021600
  0
VERTEX
  8
0
  6
CONTINUOUS
 10
136.264800
 20
9.021600
  0
VERTEX
  8
0
  6
CONTINUOUS
 10
136.264800
 20
8.736000
  0
VERTEX
  8
0
  6
CONTINUOUS
 10
122.925600
 20
8.736000
  0
SEQEND
  8
0
  0
HATCH
  5
  2799
100
AcDbEntity
  8
0
 62
     7
100
AcDbHatch
 10
0.000000
 20
0.000000
 30
0.000000
210
0.000000
220
0.000000
230
0.016800
  2
SOLID
 70
     1
 71
     0
 91
     1
 92
     1
 93
     4
 72
     1
 10
136.264800
 20
9.021600
 11
149.604000
 21
9.021600
 72
     1
 10
149.604000
 20
9.021600
 11
149.604000
 21
8.736000
 72
     1
 10
149.604000
 20
8.736000
 11
136.264800
 21
8.736000
 72
     1
 10
136.264800
 20
8.736000
 11
136.264800
 21
9.021600
 97
     0
 75
     0
 76
     1
 98
     1
 10
0.000000
 20
0.000000
  0
POLYLINE
  8
0
  6
CONTINUOUS
 66
     1
 40
0.000000
 41
0.000000
 70
     1
  0
VERTEX
  8
0
  6
CONTINUOUS
 10
136.264800
 20
9.021600
  0
VERTEX
  8
0
  6
CONTINUOUS
 10
149.604000
 20
9.021600
  0
VERTEX
  8
0
  6
CONTINUOUS
 10
149.604000
 20
8.736000
  0
VERTEX
  8
0
  6
CONTINUOUS
 10
136.264800
 20
8.736000
  0
SEQEND
  8
0
  0
HATCH
  5
  2800
100
AcDbEntity
  8
0
100
AcDbHatch
 10
0.000000
 20
0.000000
 30
0.000000
210
0.000000
220
0.000000
230
0.016800
  2
SOLID
 70
     1
 71
     0
 91
     1
 92
     1
 93
     4
 72
     1
 10
149.604000
 20
9.021600
 11
162.926400
 21
9.021600
 72
     1
 10
162.926400
 20
9.021600
 11
162.926400
 21
8.736000
 72
     1
 10
162.926400
 20
8.736000
 11
149.604000
 21
8.736000
 72
     1
 10
149.604000
 20
8.736000
 11
149.604000
 21
9.021600
 97
     0
 75
     0
 76
     1
 98
     1
 10
0.000000
 20
0.000000
  0
POLYLINE
  8
0
  6
CONTINUOUS
 66
     1
 40
0.000000
 41
0.000000
 70
     1
  0
VERTEX
  8
0
  6
CONTINUOUS
 10
149.604000
 20
9.021600
  0
VERTEX
  8
0
  6
CONTINUOUS
 10
162.926400
 20
9.021600
  0
VERTEX
  8
0
  6
CONTINUOUS
 10
162.926400
 20
8.736000
  0
VERTEX
  8
0
  6
CONTINUOUS
 10
149.604000
 20
8.736000
  0
SEQEND
  8
0
  0
HATCH
  5
  2801
100
AcDbEntity
  8
0
 62
     7
100
AcDbHatch
 10
0.000000
 20
0.000000
 30
0.000000
210
0.000000
220
0.000000
230
0.016800
  2
SOLID
 70
     1
 71
     0
 91
     1
 92
     1
 93
     4
 72
     1
 10
162.926400
 20
9.021600
 11
176.265600
 21
9.021600
 72
     1
 10
176.265600
 20
9.021600
 11
176.265600
 21
8.736000
 72
     1
 10
176.265600
 20
8.736000
 11
162.926400
 21
8.736000
 72
     1
 10
162.926400
 20
8.736000
 11
162.926400
 21
9.021600
 97
     0
 75
     0
 76
     1
 98
     1
 10
0.000000
 20
0.000000
  0
POLYLINE
  8
0
  6
CONTINUOUS
 66
     1
 40
0.000000
 41
0.000000
 70
     1
  0
VERTEX
  8
0
  6
CONTINUOUS
 10
162.926400
 20
9.021600
  0
VERTEX
  8
0
  6
CONTINUOUS
 10
176.265600
 20
9.021600
  0
VERTEX
  8
0
  6
CONTINUOUS
 10
176.265600
 20
8.736000
  0
VERTEX
  8
0
  6
CONTINUOUS
 10
162.926400
 20
8.736000
  0
SEQEND
  8
0
  0
MTEXT
  5
  2802
100
AcDbEntity
100
AcDbMText
 71
     1
 72
     5
  8
0
 10
29.080800
 20
10.718400
 40
2.890906
  1
\fArial|b0|i0|c0|p18;Scale:metres
 41
0.000000
  0
MTEXT
  5
  2803
100
AcDbEntity
100
AcDbMText
 71
     1
 72
     5
  8
0
 10
29.383200
 20
6.132000
 40
1.561239
  1
\fArial|b0|i0|c0|p18;0
 41
0.000000
  0
MTEXT
  5
  2804
100
AcDbEntity
100
AcDbMText
 71
     1
 72
     5
  8
0
 10
42.655200
 20
6.132000
 40
1.561239
  1
\fArial|b0|i0|c0|p18;1
 41
0.000000
  0
MTEXT
  5
  2805
100
AcDbEntity
100
AcDbMText
 71
     1
 72
     5
  8
0
 10
55.927200
 20
6.132000
 40
1.561239
  1
\fArial|b0|i0|c0|p18;2
 41
0.000000
  0
MTEXT
  5
  2806
100
AcDbEntity
100
AcDbMText
 71
     1
 72
     5
  8
0
 10
69.216000
 20
6.148800
 40
1.561239
  1
\fArial|b0|i0|c0|p18;3
 41
0.000000
  0
MTEXT
  5
  2807
100
AcDbEntity
100
AcDbMText
 71
     1
 72
     5
  8
0
 10
82.488000
 20
6.148800
 40
1.561239
  1
\fArial|b0|i0|c0|p18;4
 41
0.000000
  0
MTEXT
  5
  2808
100
AcDbEntity
100
AcDbMText
 71
     1
 72
     5
  8
0
 10
95.760000
 20
6.165600
 40
1.561239
  1
\fArial|b0|i0|c0|p18;5
 41
0.000000
  0
MTEXT
  5
  2809
100
AcDbEntity
100
AcDbMText
 71
     1
 72
     5
  8
0
 10
109.032000
 20
6.132000
 40
1.561239
  1
\fArial|b0|i0|c0|p18;6
 41
0.000000
  0
MTEXT
  5
  2810
100
AcDbEntity
100
AcDbMText
 71
     1
 72
     5
  8
0
 10
122.304000
 20
6.132000
 40
1.561239
  1
\fArial|b0|i0|c0|p18;7
 41
0.000000
  0
MTEXT
  5
  2811
100
AcDbEntity
100
AcDbMText
 71
     1
 72
     5
  8
0
 10
135.576000
 20
6.148800
 40
1.561239
  1
\fArial|b0|i0|c0|p18;8
 41
0.000000
  0
MTEXT
  5
  2812
100
AcDbEntity
100
AcDbMText
 71
     1
 72
     5
  8
0
 10
148.848000
 20
6.148800
 40
1.561239
  1
\fArial|b0|i0|c0|p18;9
 41
0.000000
  0
MTEXT
  5
  2813
100
AcDbEntity
100
AcDbMText
 71
     1
 72
     5
  8
0
 10
162.120000
 20
5.812800
 40
1.561239
  1
\fArial|b0|i0|c0|p18;10
 41
0.000000
  0
HATCH
  5
  2814
100
AcDbEntity
  8
0
 62
   191
100
AcDbHatch
 10
0.000000
 20
0.000000
 30
0.000000
210
0.000000
220
0.000000
230
0.016800
  2
SOLID
 70
     1
 71
     0
 91
     1
 92
     1
 93
     4
 72
     1
 10
101.808000
 20
144.748800
 11
168.621600
 21
144.748800
 72
     1
 10
168.621600
 20
144.748800
 11
168.621600
 21
144.093600
 72
     1
 10
168.621600
 20
144.093600
 11
101.808000
 21
144.093600
 72
     1
 10
101.808000
 20
144.093600
 11
101.808000
 21
144.748800
 97
     0
 75
     0
 76
     1
 98
     1
 10
0.000000
 20
0.000000
  0
POLYLINE
  8
0
  6
CONTINUOUS
 66
     1
 40
0.000000
 41
0.000000
 70
     1
  0
VERTEX
  8
0
  6
CONTINUOUS
 10
101.808000
 20
144.748800
  0
VERTEX
  8
0
  6
CONTINUOUS
 10
168.621600
 20
144.748800
  0
VERTEX
  8
0
  6
CONTINUOUS
 10
168.621600
 20
144.093600
  0
VERTEX
  8
0
  6
CONTINUOUS
 10
101.808000
 20
144.093600
  0
SEQEND
  8
0
  0
HATCH
  5
  2815
100
AcDbEntity
  8
0
 62
   191
100
AcDbHatch
 10
0.000000
 20
0.000000
 30
0.000000
210
0.000000
220
0.000000
230
0.016800
  2
SOLID
 70
     1
 71
     0
 91
     1
 92
     1
 93
     4
 72
     1
 10
101.724000
 20
138.717600
 11
172.972800
 21
138.717600
 72
     1
 10
172.972800
 20
138.717600
 11
172.972800
 21
138.045600
 72
     1
 10
172.972800
 20
138.045600
 11
101.724000
 21
138.045600
 72
     1
 10
101.724000
 20
138.045600
 11
101.724000
 21
138.717600
 97
     0
 75
     0
 76
     1
 98
     1
 10
0.000000
 20
0.000000
  0
POLYLINE
  8
0
  6
CONTINUOUS
 66
     1
 40
0.000000
 41
0.000000
 70
     1
  0
VERTEX
  8
0
  6
CONTINUOUS
 10
101.724000
 20
138.717600
  0
VERTEX
  8
0
  6
CONTINUOUS
 10
172.972800
 20
138.717600
  0
VERTEX
  8
0
  6
CONTINUOUS
 10
172.972800
 20
138.045600
  0
VERTEX
  8
0
  6
CONTINUOUS
 10
101.724000
 20
138.045600
  0
SEQEND
  8
0
  0
HATCH
  5
  2816
100
AcDbEntity
  8
0
 62
   191
100
AcDbHatch
 10
0.000000
 20
0.000000
 30
0.000000
210
0.000000
220
0.000000
230
0.016800
  2
SOLID
 70
     1
 71
     0
 91
     1
 92
     1
 93
     4
 72
     1
 10
101.724000
 20
132.064800
 11
179.323200
 21
132.064800
 72
     1
 10
179.323200
 20
132.064800
 11
179.323200
 21
131.392800
 72
     1
 10
179.323200
 20
131.392800
 11
101.724000
 21
131.392800
 72
     1
 10
101.724000
 20
131.392800
 11
101.724000
 21
132.064800
 97
     0
 75
     0
 76
     1
 98
     1
 10
0.000000
 20
0.000000
  0
POLYLINE
  8
0
  6
CONTINUOUS
 66
     1
 40
0.000000
 41
0.000000
 70
     1
  0
VERTEX
  8
0
  6
CONTINUOUS
 10
101.724000
 20
132.064800
  0
VERTEX
  8
0
  6
CONTINUOUS
 10
179.323200
 20
132.064800
  0
VERTEX
  8
0
  6
CONTINUOUS
 10
179.323200
 20
131.392800
  0
VERTEX
  8
0
  6
CONTINUOUS
 10
101.724000
 20
131.392800
  0
SEQEND
  8
0
  0
HATCH
  5
  2817
100
AcDbEntity
  8
0
 62
   191
100
AcDbHatch
 10
0.000000
 20
0.000000
 30
0.000000
210
0.000000
220
0.000000
230
0.016800
  2
SOLID
 70
     1
 71
     0
 91
     1
 92
     1
 93
     4
 72
     1
 10
101.808000
 20
125.731200
 11
183.388800
 21
125.731200
 72
     1
 10
183.388800
 20
125.731200
 11
183.388800
 21
125.059200
 72
     1
 10
183.388800
 20
125.059200
 11
101.808000
 21
125.059200
 72
     1
 10
101.808000
 20
125.059200
 11
101.808000
 21
125.731200
 97
     0
 75
     0
 76
     1
 98
     1
 10
0.000000
 20
0.000000
  0
POLYLINE
  8
0
  6
CONTINUOUS
 66
     1
 40
0.000000
 41
0.000000
 70
     1
  0
VERTEX
  8
0
  6
CONTINUOUS
 10
101.808000
 20
125.731200
  0
VERTEX
  8
0
  6
CONTINUOUS
 10
183.388800
 20
125.731200
  0
VERTEX
  8
0
  6
CONTINUOUS
 10
183.388800
 20
125.059200
  0
VERTEX
  8
0
  6
CONTINUOUS
 10
101.808000
 20
125.059200
  0
SEQEND
  8
0
  0
HATCH
  5
  2818
100
AcDbEntity
  8
0
 62
   191
100
AcDbHatch
 10
0.000000
 20
0.000000
 30
0.000000
210
0.000000
220
0.000000
230
0.016800
  2
SOLID
 70
     1
 71
     0
 91
     1
 92
     1
 93
     4
 72
     1
 10
101.606400
 20
119.095200
 11
183.002400
 21
119.095200
 72
     1
 10
183.002400
 20
119.095200
 11
183.002400
 21
118.423200
 72
     1
 10
183.002400
 20
118.423200
 11
101.606400
 21
118.423200
 72
     1
 10
101.606400
 20
118.423200
 11
101.606400
 21
119.095200
 97
     0
 75
     0
 76
     1
 98
     1
 10
0.000000
 20
0.000000
  0
POLYLINE
  8
0
  6
CONTINUOUS
 66
     1
 40
0.000000
 41
0.000000
 70
     1
  0
VERTEX
  8
0
  6
CONTINUOUS
 10
101.606400
 20
119.095200
  0
VERTEX
  8
0
  6
CONTINUOUS
 10
183.002400
 20
119.095200
  0
VERTEX
  8
0
  6
CONTINUOUS
 10
183.002400
 20
118.423200
  0
VERTEX
  8
0
  6
CONTINUOUS
 10
101.606400
 20
118.423200
  0
SEQEND
  8
0
  0
HATCH
  5
  2819
100
AcDbEntity
  8
0
 62
   191
100
AcDbHatch
 10
0.000000
 20
0.000000
 30
0.000000
210
0.000000
220
0.000000
230
0.016800
  2
SOLID
 70
     1
 71
     0
 91
     1
 92
     1
 93
     4
 72
     1
 10
101.606400
 20
112.761600
 11
182.632800
 21
112.761600
 72
     1
 10
182.632800
 20
112.761600
 11
182.632800
 21
112.106400
 72
     1
 10
182.632800
 20
112.106400
 11
101.606400
 21
112.106400
 72
     1
 10
101.606400
 20
112.106400
 11
101.606400
 21
112.761600
 97
     0
 75
     0
 76
     1
 98
     1
 10
0.000000
 20
0.000000
  0
POLYLINE
  8
0
  6
CONTINUOUS
 66
     1
 40
0.000000
 41
0.000000
 70
     1
  0
VERTEX
  8
0
  6
CONTINUOUS
 10
101.606400
 20
112.761600
  0
VERTEX
  8
0
  6
CONTINUOUS
 10
182.632800
 20
112.761600
  0
VERTEX
  8
0
  6
CONTINUOUS
 10
182.632800
 20
112.106400
  0
VERTEX
  8
0
  6
CONTINUOUS
 10
101.606400
 20
112.106400
  0
SEQEND
  8
0
  0
HATCH
  5
  2820
100
AcDbEntity
  8
0
 62
   191
100
AcDbHatch
 10
0.000000
 20
0.000000
 30
0.000000
210
0.000000
220
0.000000
230
0.016800
  2
SOLID
 70
     1
 71
     0
 91
     1
 92
     1
 93
     4
 72
     1
 10
101.707200
 20
106.142400
 11
176.568000
 21
106.142400
 72
     1
 10
176.568000
 20
106.142400
 11
176.568000
 21
105.470400
 72
     1
 10
176.568000
 20
105.470400
 11
101.707200
 21
105.470400
 72
     1
 10
101.707200
 20
105.470400
 11
101.707200
 21
106.142400
 97
     0
 75
     0
 76
     1
 98
     1
 10
0.000000
 20
0.000000
  0
POLYLINE
  8
0
  6
CONTINUOUS
 66
     1
 40
0.000000
 41
0.000000
 70
     1
  0
VERTEX
  8
0
  6
CONTINUOUS
 10
101.707200
 20
106.142400
  0
VERTEX
  8
0
  6
CONTINUOUS
 10
176.568000
 20
106.142400
  0
VERTEX
  8
0
  6
CONTINUOUS
 10
176.568000
 20
105.470400
  0
VERTEX
  8
0
  6
CONTINUOUS
 10
101.707200
 20
105.470400
  0
SEQEND
  8
0
  0
HATCH
  5
  2821
100
AcDbEntity
  8
0
 62
   191
100
AcDbHatch
 10
0.000000
 20
0.000000
 30
0.000000
210
0.000000
220
0.000000
230
0.016800
  2
SOLID
 70
     1
 71
     0
 91
     1
 92
     1
 93
     4
 72
     1
 10
101.707200
 20
99.607200
 11
168.806400
 21
99.607200
 72
     1
 10
168.806400
 20
99.607200
 11
168.806400
 21
98.935200
 72
     1
 10
168.806400
 20
98.935200
 11
101.707200
 21
98.935200
 72
     1
 10
101.707200
 20
98.935200
 11
101.707200
 21
99.607200
 97
     0
 75
     0
 76
     1
 98
     1
 10
0.000000
 20
0.000000
  0
POLYLINE
  8
0
  6
CONTINUOUS
 66
     1
 40
0.000000
 41
0.000000
 70
     1
  0
VERTEX
  8
0
  6
CONTINUOUS
 10
101.707200
 20
99.607200
  0
VERTEX
  8
0
  6
CONTINUOUS
 10
168.806400
 20
99.607200
  0
VERTEX
  8
0
  6
CONTINUOUS
 10
168.806400
 20
98.935200
  0
VERTEX
  8
0
  6
CONTINUOUS
 10
101.707200
 20
98.935200
  0
SEQEND
  8
0
  0
HATCH
  5
  2822
100
AcDbEntity
  8
0
 62
   191
100
AcDbHatch
 10
0.000000
 20
0.000000
 30
0.000000
210
0.000000
220
0.000000
230
0.016800
  2
SOLID
 70
     1
 71
     0
 91
     1
 92
     1
 93
     4
 72
     1
 10
101.606400
 20
93.828000
 11
167.479200
 21
93.828000
 72
     1
 10
167.479200
 20
93.828000
 11
167.479200
 21
93.156000
 72
     1
 10
167.479200
 20
93.156000
 11
101.606400
 21
93.156000
 72
     1
 10
101.606400
 20
93.156000
 11
101.606400
 21
93.828000
 97
     0
 75
     0
 76
     1
 98
     1
 10
0.000000
 20
0.000000
  0
POLYLINE
  8
0
  6
CONTINUOUS
 66
     1
 40
0.000000
 41
0.000000
 70
     1
  0
VERTEX
  8
0
  6
CONTINUOUS
 10
101.606400
 20
93.828000
  0
VERTEX
  8
0
  6
CONTINUOUS
 10
167.479200
 20
93.828000
  0
VERTEX
  8
0
  6
CONTINUOUS
 10
167.479200
 20
93.156000
  0
VERTEX
  8
0
  6
CONTINUOUS
 10
101.606400
 20
93.156000
  0
SEQEND
  8
0
  0
HATCH
  5
  2823
100
AcDbEntity
  8
0
 62
   191
100
AcDbHatch
 10
0.000000
 20
0.000000
 30
0.000000
210
0.000000
220
0.000000
230
0.016800
  2
SOLID
 70
     1
 71
     0
 91
     1
 92
     1
 93
     4
 72
     1
 10
101.707200
 20
87.410400
 11
167.479200
 21
87.410400
 72
     1
 10
167.479200
 20
87.410400
 11
167.479200
 21
86.738400
 72
     1
 10
167.479200
 20
86.738400
 11
101.707200
 21
86.738400
 72
     1
 10
101.707200
 20
86.738400
 11
101.707200
 21
87.410400
 97
     0
 75
     0
 76
     1
 98
     1
 10
0.000000
 20
0.000000
  0
POLYLINE
  8
0
  6
CONTINUOUS
 66
     1
 40
0.000000
 41
0.000000
 70
     1
  0
VERTEX
  8
0
  6
CONTINUOUS
 10
101.707200
 20
87.410400
  0
VERTEX
  8
0
  6
CONTINUOUS
 10
167.479200
 20
87.410400
  0
VERTEX
  8
0
  6
CONTINUOUS
 10
167.479200
 20
86.738400
  0
VERTEX
  8
0
  6
CONTINUOUS
 10
101.707200
 20
86.738400
  0
SEQEND
  8
0
  0
HATCH
  5
  2824
100
AcDbEntity
  8
0
 62
   191
100
AcDbHatch
 10
0.000000
 20
0.000000
 30
0.000000
210
0.000000
220
0.000000
230
0.016800
  2
SOLID
 70
     1
 71
     0
 91
     1
 92
     1
 93
     4
 72
     1
 10
101.707200
 20
81.244800
 11
167.378400
 21
81.244800
 72
     1
 10
167.378400
 20
81.244800
 11
167.378400
 21
80.589600
 72
     1
 10
167.378400
 20
80.589600
 11
101.707200
 21
80.589600
 72
     1
 10
101.707200
 20
80.589600
 11
101.707200
 21
81.244800
 97
     0
 75
     0
 76
     1
 98
     1
 10
0.000000
 20
0.000000
  0
POLYLINE
  8
0
  6
CONTINUOUS
 66
     1
 40
0.000000
 41
0.000000
 70
     1
  0
VERTEX
  8
0
  6
CONTINUOUS
 10
101.707200
 20
81.244800
  0
VERTEX
  8
0
  6
CONTINUOUS
 10
167.378400
 20
81.244800
  0
VERTEX
  8
0
  6
CONTINUOUS
 10
167.378400
 20
80.589600
  0
VERTEX
  8
0
  6
CONTINUOUS
 10
101.707200
 20
80.589600
  0
SEQEND
  8
0
  0
HATCH
  5
  2825
100
AcDbEntity
  8
0
 62
   191
100
AcDbHatch
 10
0.000000
 20
0.000000
 30
0.000000
210
0.000000
220
0.000000
230
0.016800
  2
SOLID
 70
     1
 71
     0
 91
     1
 92
     1
 93
     4
 72
     1
 10
33.751200
 20
144.043200
 11
112.190400
 21
144.043200
 72
     1
 10
112.190400
 20
144.043200
 11
112.190400
 21
143.371200
 72
     1
 10
112.190400
 20
143.371200
 11
33.751200
 21
143.371200
 72
     1
 10
33.751200
 20
143.371200
 11
33.751200
 21
144.043200
 97
     0
 75
     0
 76
     1
 98
     1
 10
0.000000
 20
0.000000
  0
POLYLINE
  8
0
  6
CONTINUOUS
 66
     1
 40
0.000000
 41
0.000000
 70
     1
  0
VERTEX
  8
0
  6
CONTINUOUS
 10
33.751200
 20
144.043200
  0
VERTEX
  8
0
  6
CONTINUOUS
 10
112.190400
 20
144.043200
  0
VERTEX
  8
0
  6
CONTINUOUS
 10
112.190400
 20
143.371200
  0
VERTEX
  8
0
  6
CONTINUOUS
 10
33.751200
 20
143.371200
  0
SEQEND
  8
0
  0
HATCH
  5
  2826
100
AcDbEntity
  8
0
 62
   191
100
AcDbHatch
 10
0.000000
 20
0.000000
 30
0.000000
210
0.000000
220
0.000000
230
0.016800
  2
SOLID
 70
     1
 71
     0
 91
     1
 92
     1
 93
     4
 72
     1
 10
33.650400
 20
137.995200
 11
112.257600
 21
137.995200
 72
     1
 10
112.257600
 20
137.995200
 11
112.257600
 21
137.323200
 72
     1
 10
112.257600
 20
137.323200
 11
33.650400
 21
137.323200
 72
     1
 10
33.650400
 20
137.323200
 11
33.650400
 21
137.995200
 97
     0
 75
     0
 76
     1
 98
     1
 10
0.000000
 20
0.000000
  0
POLYLINE
  8
0
  6
CONTINUOUS
 66
     1
 40
0.000000
 41
0.000000
 70
     1
  0
VERTEX
  8
0
  6
CONTINUOUS
 10
33.650400
 20
137.995200
  0
VERTEX
  8
0
  6
CONTINUOUS
 10
112.257600
 20
137.995200
  0
VERTEX
  8
0
  6
CONTINUOUS
 10
112.257600
 20
137.323200
  0
VERTEX
  8
0
  6
CONTINUOUS
 10
33.650400
 20
137.323200
  0
SEQEND
  8
0
  0
HATCH
  5
  2827
100
AcDbEntity
  8
0
 62
   191
100
AcDbHatch
 10
0.000000
 20
0.000000
 30
0.000000
210
0.000000
220
0.000000
230
0.016800
  2
SOLID
 70
     1
 71
     0
 91
     1
 92
     1
 93
     4
 72
     1
 10
33.650400
 20
131.342400
 11
112.257600
 21
131.342400
 72
     1
 10
112.257600
 20
131.342400
 11
112.257600
 21
130.670400
 72
     1
 10
112.257600
 20
130.670400
 11
33.650400
 21
130.670400
 72
     1
 10
33.650400
 20
130.670400
 11
33.650400
 21
131.342400
 97
     0
 75
     0
 76
     1
 98
     1
 10
0.000000
 20
0.000000
  0
POLYLINE
  8
0
  6
CONTINUOUS
 66
     1
 40
0.000000
 41
0.000000
 70
     1
  0
VERTEX
  8
0
  6
CONTINUOUS
 10
33.650400
 20
131.342400
  0
VERTEX
  8
0
  6
CONTINUOUS
 10
112.257600
 20
131.342400
  0
VERTEX
  8
0
  6
CONTINUOUS
 10
112.257600
 20
130.670400
  0
VERTEX
  8
0
  6
CONTINUOUS
 10
33.650400
 20
130.670400
  0
SEQEND
  8
0
  0
HATCH
  5
  2828
100
AcDbEntity
  8
0
 62
   191
100
AcDbHatch
 10
0.000000
 20
0.000000
 30
0.000000
210
0.000000
220
0.000000
230
0.016800
  2
SOLID
 70
     1
 71
     0
 91
     1
 92
     1
 93
     4
 72
     1
 10
33.734400
 20
125.008800
 11
112.257600
 21
125.008800
 72
     1
 10
112.257600
 20
125.008800
 11
112.257600
 21
124.336800
 72
     1
 10
112.257600
 20
124.336800
 11
33.734400
 21
124.336800
 72
     1
 10
33.734400
 20
124.336800
 11
33.734400
 21
125.008800
 97
     0
 75
     0
 76
     1
 98
     1
 10
0.000000
 20
0.000000
  0
POLYLINE
  8
0
  6
CONTINUOUS
 66
     1
 40
0.000000
 41
0.000000
 70
     1
  0
VERTEX
  8
0
  6
CONTINUOUS
 10
33.734400
 20
125.008800
  0
VERTEX
  8
0
  6
CONTINUOUS
 10
112.257600
 20
125.008800
  0
VERTEX
  8
0
  6
CONTINUOUS
 10
112.257600
 20
124.336800
  0
VERTEX
  8
0
  6
CONTINUOUS
 10
33.734400
 20
124.336800
  0
SEQEND
  8
0
  0
HATCH
  5
  2829
100
AcDbEntity
  8
0
 62
   191
100
AcDbHatch
 10
0.000000
 20
0.000000
 30
0.000000
210
0.000000
220
0.000000
230
0.016800
  2
SOLID
 70
     1
 71
     0
 91
     1
 92
     1
 93
     4
 72
     1
 10
33.549600
 20
118.372800
 11
112.190400
 21
118.372800
 72
     1
 10
112.190400
 20
118.372800
 11
112.190400
 21
117.700800
 72
     1
 10
112.190400
 20
117.700800
 11
33.549600
 21
117.700800
 72
     1
 10
33.549600
 20
117.700800
 11
33.549600
 21
118.372800
 97
     0
 75
     0
 76
     1
 98
     1
 10
0.000000
 20
0.000000
  0
POLYLINE
  8
0
  6
CONTINUOUS
 66
     1
 40
0.000000
 41
0.000000
 70
     1
  0
VERTEX
  8
0
  6
CONTINUOUS
 10
33.549600
 20
118.372800
  0
VERTEX
  8
0
  6
CONTINUOUS
 10
112.190400
 20
118.372800
  0
VERTEX
  8
0
  6
CONTINUOUS
 10
112.190400
 20
117.700800
  0
VERTEX
  8
0
  6
CONTINUOUS
 10
33.549600
 20
117.700800
  0
SEQEND
  8
0
  0
HATCH
  5
  2830
100
AcDbEntity
  8
0
 62
   191
100
AcDbHatch
 10
0.000000
 20
0.000000
 30
0.000000
210
0.000000
220
0.000000
230
0.016800
  2
SOLID
 70
     1
 71
     0
 91
     1
 92
     1
 93
     4
 72
     1
 10
33.549600
 20
112.056000
 11
112.257600
 21
112.056000
 72
     1
 10
112.257600
 20
112.056000
 11
112.257600
 21
111.384000
 72
     1
 10
112.257600
 20
111.384000
 11
33.549600
 21
111.384000
 72
     1
 10
33.549600
 20
111.384000
 11
33.549600
 21
112.056000
 97
     0
 75
     0
 76
     1
 98
     1
 10
0.000000
 20
0.000000
  0
POLYLINE
  8
0
  6
CONTINUOUS
 66
     1
 40
0.000000
 41
0.000000
 70
     1
  0
VERTEX
  8
0
  6
CONTINUOUS
 10
33.549600
 20
112.056000
  0
VERTEX
  8
0
  6
CONTINUOUS
 10
112.257600
 20
112.056000
  0
VERTEX
  8
0
  6
CONTINUOUS
 10
112.257600
 20
111.384000
  0
VERTEX
  8
0
  6
CONTINUOUS
 10
33.549600
 20
111.384000
  0
SEQEND
  8
0
  0
HATCH
  5
  2831
100
AcDbEntity
  8
0
 62
   191
100
AcDbHatch
 10
0.000000
 20
0.000000
 30
0.000000
210
0.000000
220
0.000000
230
0.016800
  2
SOLID
 70
     1
 71
     0
 91
     1
 92
     1
 93
     4
 72
     1
 10
33.633600
 20
105.420000
 11
112.459200
 21
105.420000
 72
     1
 10
112.459200
 20
105.420000
 11
112.459200
 21
104.764800
 72
     1
 10
112.459200
 20
104.764800
 11
33.633600
 21
104.764800
 72
     1
 10
33.633600
 20
104.764800
 11
33.633600
 21
105.420000
 97
     0
 75
     0
 76
     1
 98
     1
 10
0.000000
 20
0.000000
  0
POLYLINE
  8
0
  6
CONTINUOUS
 66
     1
 40
0.000000
 41
0.000000
 70
     1
  0
VERTEX
  8
0
  6
CONTINUOUS
 10
33.633600
 20
105.420000
  0
VERTEX
  8
0
  6
CONTINUOUS
 10
112.459200
 20
105.420000
  0
VERTEX
  8
0
  6
CONTINUOUS
 10
112.459200
 20
104.764800
  0
VERTEX
  8
0
  6
CONTINUOUS
 10
33.633600
 20
104.764800
  0
SEQEND
  8
0
  0
HATCH
  5
  2832
100
AcDbEntity
  8
0
 62
   191
100
AcDbHatch
 10
0.000000
 20
0.000000
 30
0.000000
210
0.000000
220
0.000000
230
0.016800
  2
SOLID
 70
     1
 71
     0
 91
     1
 92
     1
 93
     4
 72
     1
 10
33.633600
 20
98.884800
 11
112.358400
 21
98.884800
 72
     1
 10
112.358400
 20
98.884800
 11
112.358400
 21
98.229600
 72
     1
 10
112.358400
 20
98.229600
 11
33.633600
 21
98.229600
 72
     1
 10
33.633600
 20
98.229600
 11
33.633600
 21
98.884800
 97
     0
 75
     0
 76
     1
 98
     1
 10
0.000000
 20
0.000000
  0
POLYLINE
  8
0
  6
CONTINUOUS
 66
     1
 40
0.000000
 41
0.000000
 70
     1
  0
VERTEX
  8
0
  6
CONTINUOUS
 10
33.633600
 20
98.884800
  0
VERTEX
  8
0
  6
CONTINUOUS
 10
112.358400
 20
98.884800
  0
VERTEX
  8
0
  6
CONTINUOUS
 10
112.358400
 20
98.229600
  0
VERTEX
  8
0
  6
CONTINUOUS
 10
33.633600
 20
98.229600
  0
SEQEND
  8
0
  0
HATCH
  5
  2833
100
AcDbEntity
  8
0
 62
   191
100
AcDbHatch
 10
0.000000
 20
0.000000
 30
0.000000
210
0.000000
220
0.000000
230
0.016800
  2
SOLID
 70
     1
 71
     0
 91
     1
 92
     1
 93
     4
 72
     1
 10
33.549600
 20
93.105600
 11
112.190400
 21
93.105600
 72
     1
 10
112.190400
 20
93.105600
 11
112.190400
 21
92.433600
 72
     1
 10
112.190400
 20
92.433600
 11
33.549600
 21
92.433600
 72
     1
 10
33.549600
 20
92.433600
 11
33.549600
 21
93.105600
 97
     0
 75
     0
 76
     1
 98
     1
 10
0.000000
 20
0.000000
  0
POLYLINE
  8
0
  6
CONTINUOUS
 66
     1
 40
0.000000
 41
0.000000
 70
     1
  0
VERTEX
  8
0
  6
CONTINUOUS
 10
33.549600
 20
93.105600
  0
VERTEX
  8
0
  6
CONTINUOUS
 10
112.190400
 20
93.105600
  0
VERTEX
  8
0
  6
CONTINUOUS
 10
112.190400
 20
92.433600
  0
VERTEX
  8
0
  6
CONTINUOUS
 10
33.549600
 20
92.433600
  0
SEQEND
  8
0
  0
HATCH
  5
  2834
100
AcDbEntity
  8
0
 62
   191
100
AcDbHatch
 10
0.000000
 20
0.000000
 30
0.000000
210
0.000000
220
0.000000
230
0.016800
  2
SOLID
 70
     1
 71
     0
 91
     1
 92
     1
 93
     4
 72
     1
 10
33.633600
 20
86.688000
 11
112.190400
 21
86.688000
 72
     1
 10
112.190400
 20
86.688000
 11
112.190400
 21
86.016000
 72
     1
 10
112.190400
 20
86.016000
 11
33.633600
 21
86.016000
 72
     1
 10
33.633600
 20
86.016000
 11
33.633600
 21
86.688000
 97
     0
 75
     0
 76
     1
 98
     1
 10
0.000000
 20
0.000000
  0
POLYLINE
  8
0
  6
CONTINUOUS
 66
     1
 40
0.000000
 41
0.000000
 70
     1
  0
VERTEX
  8
0
  6
CONTINUOUS
 10
33.633600
 20
86.688000
  0
VERTEX
  8
0
  6
CONTINUOUS
 10
112.190400
 20
86.688000
  0
VERTEX
  8
0
  6
CONTINUOUS
 10
112.190400
 20
86.016000
  0
VERTEX
  8
0
  6
CONTINUOUS
 10
33.633600
 20
86.016000
  0
SEQEND
  8
0
  0
HATCH
  5
  2835
100
AcDbEntity
  8
0
 62
   191
100
AcDbHatch
 10
0.000000
 20
0.000000
 30
0.000000
210
0.000000
220
0.000000
230
0.016800
  2
SOLID
 70
     1
 71
     0
 91
     1
 92
     1
 93
     4
 72
     1
 10
33.633600
 20
80.522400
 11
112.190400
 21
80.522400
 72
     1
 10
112.190400
 20
80.522400
 11
112.190400
 21
79.867200
 72
     1
 10
112.190400
 20
79.867200
 11
33.633600
 21
79.867200
 72
     1
 10
33.633600
 20
79.867200
 11
33.633600
 21
80.522400
 97
     0
 75
     0
 76
     1
 98
     1
 10
0.000000
 20
0.000000
  0
POLYLINE
  8
0
  6
CONTINUOUS
 66
     1
 40
0.000000
 41
0.000000
 70
     1
  0
VERTEX
  8
0
  6
CONTINUOUS
 10
33.633600
 20
80.522400
  0
VERTEX
  8
0
  6
CONTINUOUS
 10
112.190400
 20
80.522400
  0
VERTEX
  8
0
  6
CONTINUOUS
 10
112.190400
 20
79.867200
  0
VERTEX
  8
0
  6
CONTINUOUS
 10
33.633600
 20
79.867200
  0
SEQEND
  8
0
  0
ENDSEC
  0
EOF
